CHORD BOOK, pg.8

PAGE EIGHT
==========
Moveable Intervals


Halfsteps (minor second)
------------------------

|-R-|b2-|---|---|---|---|---|---|---|---|---|---|-R-|
|---|---|---|---|---|-R-|b2-|---|---|---|---|---|---|
|---|---|---|---|---|---|---|---|---|-R-|b2-|---|---|
|---|---|-R-|b2-|---|---|---|---|---|---|---|---|---|
|---|---|---|---|---|---|---|-R-|b2-|---|---|---|---|
|-R-|b2-|---|---|---|---|---|---|---|---|---|---|-R-|



on any string (in any tuning)
|-1-|b2-|---|

 	  
A|b2-|---|---|---|---|		D|b2-|---|---|---|---|
E|---|---|---|---|-1-|		A|---|---|---|---|-1-|


G|b2-|---|---|---|---|		 B|b2-|---|---|---|
D|---|---|---|---|-1-|		 G|---|---|---|-1-|


E|b2-|---|---|---|---|
B|---|---|---|---|-1-|



Whole Steps (Major second)
--------------------------


|-R-|---|-2-|---|---|---|---|---|---|---|---|---|-R-|
|---|---|---|---|---|-R-|---|-2-|---|---|---|---|---|
|---|---|---|---|---|---|---|---|---|-R-|---|-2-|---|
|---|---|-R-|---|-2-|---|---|---|---|---|---|---|---|
|---|---|---|---|---|---|---|-R-|---|-2-|---|---|---|
|-R-|---|-2-|---|---|---|---|---|---|---|---|---|-R-|



on any string (in any tuning)
|-1-|---|-2-|


A|-2-|---|---|---|		D|-2-|---|---|---|
E|---|---|---|-1-|		A|---|---|---|-1-|


G|-2-|---|---|---|		 B|-2-|---|---|
D|---|---|---|-1-|		 G|---|---|-1-|


E|-2-|---|---|---|
B|---|---|---|-1-|



Step and a half (minor third)
-----------------------------


|-R-|---|---|b3-|---|---|---|---|---|---|---|---|-R-|
|---|---|---|---|---|-R-|---|---|b3-|---|---|---|---|
|b3-|---|---|---|---|---|---|---|---|-R-|---|---|b3-|
|---|---|-R-|---|---|b3-|---|---|---|---|---|---|---|
|---|---|---|---|---|---|---|-R-|---|---|b3-|---|---|
|-R-|---|---|b3-|---|---|---|---|---|---|---|---|-R-|



on any string (in any tuning)
|-1-|---|---|b3-|


A|b3-|---|---|		D|b3-|---|---|
E|---|---|-1-|		A|---|---|-1-|


G|b3-|---|---|		 B|b3-|---|
D|---|---|-1-|		 G|---|-1-|


E|b3-|---|---|
B|---|---|-1-|



Major third
-----------



|-R-|---|---|---|-3-|---|---|---|---|---|---|---|-R-|
|---|---|---|---|---|-R-|---|---|---|-3-|---|---|---|
|---|-3-|---|---|---|---|---|---|---|-R-|---|---|---|
|---|---|-R-|---|---|---|-3-|---|---|---|---|---|---|
|---|---|---|---|---|---|---|-R-|---|---|---|-3-|---|
|-R-|---|---|---|-3-|---|---|---|---|---|---|---|-R-|


on any string (in any tuning)
|-1-|---|---|---|-3-|


A|-3-|---|		D|-3-|---|
E|---|-1-|		A|---|-1-|


G|-3-|---|		 B|-3-|
D|---|-1-|		 G|-1-|


E|-3-|---|
B|---|-1-|



Perfect Fourth
--------------


|-R-|---|---|---|---|-4-|---|---|---|---|---|---|-R-|
|---|---|---|---|---|-R-|---|---|---|---|-4-|---|---|
|---|---|-4-|---|---|---|---|---|---|-R-|---|---|---|
|---|---|-R-|---|---|---|---|-4-|---|---|---|---|---|
|-4-|---|---|---|---|---|---|-R-|---|---|---|---|-4-|
|-R-|---|---|---|---|-4-|---|---|---|---|---|---|-R-|


on any string (in any tuning)
|-1-|---|---|---|---|-4-|


A|-4-|		D|-4-|
E|-1-|		A|-1-|


G|-4-|		 B|---|-4-|
D|-1-|		 G|-1-|---|


E|-4-|
B|-1-|




Augmented Fourth/Diminished Fifth (Tritone)
-------------------------------------------


|-R-|---|---|---|---|---|#4-|---|---|---|---|---|-R-|
|---|---|---|---|---|-R-|---|---|---|---|---|#4-|---|
|---|---|---|#4-|---|---|---|---|---|-R-|---|---|---|
|---|---|-R-|---|---|---|---|---|#4-|---|---|---|---|
|---|#4-|---|---|---|---|---|-R-|---|---|---|---|---|
|-R-|---|---|---|---|---|#4-|---|---|---|---|---|-R-|



on any string (in any tuning)
|-1-|---|---|---|---|---|#4-|


A|---|#4-|		D|---|#4-|
E|-1-|---|		A|-1-|---|


G|---|#4-|		 B|---|---|#4-|
D|-1-|---|		 G|-1-|---|---|


E|---|#4-|
B|-1-|---|



Perfect Fifth
-------------


|-R-|---|---|---|---|---|---|-5-|---|---|---|---|-R-|
|-5-|---|---|---|---|-R-|---|---|---|---|---|---|-5-|
|---|---|---|---|-5-|---|---|---|---|-R-|---|---|---|
|---|---|-R-|---|---|---|---|---|---|-5-|---|---|---|
|---|---|-5-|---|---|---|---|-R-|---|---|---|---|---|
|-R-|---|---|---|---|---|---|-5-|---|---|---|---|-R-|


on any string (in any tuning)
|-1-|---|---|---|---|---|---|-5-|


A|---|---|-5-|		D|---|---|-5-|
E|-1-|---|---|		A|-1-|---|---|


G|---|---|-5-|		 B|---|---|---|-5-|
D|-1-|---|---|		 G|-1-|---|---|---|


E|---|---|-5-|
B|-1-|---|---|



D|-5-|---|---|---|	G|-5-|---|---|---|
A|---|---|---|---|	D|---|---|---|---|
E|---|---|---|-1-|	A|---|---|---|-1-|



B|-5-|---|---|		E|-5-|---|---|
G|---|---|---|		B|---|---|---|
D|---|---|-1-|		G|---|---|-1-|




Augmented Fifth (minor sixth)
-----------------------------


|-R-|---|---|---|---|---|---|---|#5-|---|---|---|-R-|
|---|#5-|---|---|---|-R-|---|---|---|---|---|---|---|
|---|---|---|---|---|#5-|---|---|---|-R-|---|---|---|
|---|---|-R-|---|---|---|---|---|---|---|#5-|---|---|
|---|---|---|#5-|---|---|---|-R-|---|---|---|---|---|
|-R-|---|---|---|---|---|---|---|#5-|---|---|---|-R-|


on any string (in any tuning)
|-1-|---|---|---|---|---|---|---|#5-|


A|---|---|---|#5-|		D|---|---|---|#5-|
E|-1-|---|---|---|		A|-1-|---|---|---|


G|---|---|---|#5-|		 B|---|---|---|---|#5-|
D|-1-|---|---|---|		 G|-1-|---|---|---|---|


E|---|---|---|#5-|
B|-1-|---|---|---|



D|#5-|---|---|		G|#5-|---|---|
A|---|---|---|		D|---|---|---|
E|---|---|-1-|		A|---|---|-1-|



B|#5-|---|		E|#5-|---|
G|---|---|		B|---|---|
D|---|-1-|		G|---|-1-|




Major sixth (diminished seventh)
--------------------------------


|-R-|---|---|---|---|---|---|---|---|-6-|---|---|-R-|
|---|---|-6-|---|---|-R-|---|---|---|---|---|---|---|
|---|---|---|---|---|---|-6-|---|---|-R-|---|---|---|
|---|---|-R-|---|---|---|---|---|---|---|---|-6-|---|
|---|---|---|---|-6-|---|---|-R-|---|---|---|---|---|
|-R-|---|---|---|---|---|---|---|---|-6-|---|---|-R-|


on any string (in any tuning)
|-1-|---|---|---|---|---|---|---|---|-6-|


A|---|---|---|---|-6-|		D|---|---|---|---|-6-|
E|-1-|---|---|---|---|		A|-1-|---|---|---|---|


G|---|---|---|---|-6-|		 B|---|---|---|---|---|-6-|
D|-1-|---|---|---|---|		 G|-1-|---|---|---|---|---|


E|---|---|---|---|-6-|
B|-1-|---|---|---|---|



D|-6-|---|		G|-6-|---|
A|---|---|		D|---|---|
E|---|-1-|		A|---|-1-|



B|-6-|		E|-6-|
G|---|		B|---|
D|-1-|		G|-1-|






Minor seventh 
-------------


|-R-|---|---|---|---|---|---|---|---|---|b7-|---|-R-|
|---|---|---|b7-|---|-R-|---|---|---|---|---|---|---|
|---|---|---|---|---|---|---|b7-|---|-R-|---|---|---|
|b7-|---|-R-|---|---|---|---|---|---|---|---|---|b7-|
|---|---|---|---|---|b7-|---|-R-|---|---|---|---|---|
|-R-|---|---|---|---|---|---|---|---|---|b7-|---|-R-|


on any string (in any tuning)
|-1-|---|---|---|---|---|---|---|---|---|b7-|


A|---|---|---|---|---|b7-|	D|---|---|---|---|---|b7-|
E|-1-|---|---|---|---|---|	A|-1-|---|---|---|---|---|


G|---|---|---|---|---|b7-|	 B|---|---|---|---|---|---|b7-|
D|-1-|---|---|---|---|---|	 G|-1-|---|---|---|---|---|---|


E|---|---|---|---|---|b7-|
B|-1-|---|---|---|---|---|



D|b7-|		G|b7-|
A|---|		D|---|
E|-1-|		A|-1-|



B|---|b7-|	E|---|b7-|
G|---|---|	B|---|---|
D|-1-|---|	G|-1-|---|




Major seventh 
-------------


|-R-|---|---|---|---|---|---|---|---|---|---|-7-|-R-|
|---|---|---|---|-7-|-R-|---|---|---|---|---|---|---|
|---|---|---|---|---|---|---|---|-7-|-R-|---|---|---|
|---|-7-|-R-|---|---|---|---|---|---|---|---|---|---|
|---|---|---|---|---|---|-7-|-R-|---|---|---|---|---|
|-R-|---|---|---|---|---|---|---|---|---|---|-7-|-R-|


on any string (in any tuning)
|-1-|---|---|---|---|---|---|---|---|---|---|-7-|



D|---|-7-|		G|---|-7-|
A|---|---|		D|---|---|
E|-1-|---|	   	A|-1-|---|



B|---|---|-7-|		E|---|---|-7-|
G|---|---|---|		B|---|---|---|
D|-1-|---|---|		G|-1-|---|---|



Back to:
The Chord Book Index
The chord index
The beginners page
The intermediate page
The advenced page
The guitar homepage


Last updated January 4, 2008
Copyright 2007,2008 all rights reserved.