CHORD BOOK, pg.29

PAGE TWENTY-NINE
================


5 = 1,5,8
---------
Moveable Power Chords

|-R-|---|---|---|---|---|---|-O-|---|---|---|---|-R-|
|-O-|---|---|---|---|-R-|---|---|---|---|---|---|-O-|
|---|---|---|---|-O-|---|---|---|---|-R-|---|---|---|
|---|---|-R-|---|---|---|---|---|---|-O-|---|---|---|
|---|---|-O-|---|---|---|---|-R-|---|---|---|---|---|
|-R-|---|---|---|---|---|---|-O-|---|---|---|---|-R-|


|-1-|---|---|---|---|---|---|-5-|---|---|---|---|-1-|
|-5-|---|---|---|---|-1-|---|---|---|---|---|---|-5-|
|---|---|---|---|-5-|---|---|---|---|-1-|---|---|---|
|---|---|-1-|---|---|---|---|---|---|-5-|---|---|---|
|---|---|-5-|---|---|---|---|-1-|---|---|---|---|---|
|-1-|---|---|---|---|---|---|-5-|---|---|---|---|-1-|


    E-shape			    A-shape
X|---|---|---|---|		X|---|---|---|---|---|
X|---|---|---|---|		X|---|---|---|---|---|
X|---|---|---|---|		 |---|---|-1-|---|---|
 |---|---|-1-|---|		 |---|---|-5-|---|---|
 |---|---|-5-|---|		 |-1-|---|---|---|---|
 |-1-|---|---|---|		X|---|---|---|---|---|



     D-shape			      C-shape
 |---|---|---|---|		X|---|---|---|---|---|
 |---|---|---|-1-|		 |---|-1-|---|---|---|
 |---|---|-5-|---|		 |-5-|---|---|---|---|
 |-1-|---|---|---|		X|---|---|---|---|---|
X|---|---|---|---|		 |---|---|---|-1-|---|
X|---|---|---|---|		X|---|---|---|-5-|---|


     G-shape
|---|---|---|-1-|
|---|---|---|-5-|
|-1-|---|---|---|
|-5-|---|---|---|
|---|---|---|---|
|---|---|---|-1-|


Back to:
The Chord Book Index
The chord index
The beginners page
The intermediate page
The advenced page
The guitar homepage


Last updated January 4, 2008
Copyright 2007,2008 all rights reserved.