CHORD BOOK, pg.28

PAGE TWENTY-EIGHT
=================
Moveable 6,m6,6/9,m6/9,add2,add9,madd9,add4 chords



6 (maj6) = 1,3,5,6
---------
Moveable Major Sixth Chords

|-R-|---|---|---|-O-|---|---|-O-|---|-O-|---|---|-R-|
|-O-|---|-O-|---|---|-R-|---|---|---|-O-|---|---|-O-|
|---|-O-|---|---|-O-|---|-O-|---|---|-R-|---|---|---|
|---|---|-R-|---|---|---|-O-|---|---|-O-|---|-O-|---|
|---|---|-O-|---|-O-|---|---|-R-|---|---|---|-O-|---|
|-R-|---|---|---|-O-|---|---|-O-|---|-O-|---|---|-R-|


|-1-|---|---|---|-3-|---|---|-5-|---|-6-|---|---|-1-|
|-5-|---|-6-|---|---|-1-|---|---|---|-3-|---|---|-5-|
|---|-3-|---|---|-5-|---|-6-|---|---|-1-|---|---|---|
|---|---|-1-|---|---|---|-3-|---|---|-5-|---|-6-|---|
|---|---|-5-|---|-6-|---|---|-1-|---|---|---|-3-|---|
|-1-|---|---|---|-3-|---|---|-5-|---|-6-|---|---|-1-|


    E-shape			    A-shape
 |-1-|---|---|---|		 |---|---|-6-|---|---|
 |---|---|13-|---|		 |---|---|-3-|---|---|
 |---|-3-|---|---|		 |---|---|-1-|---|---|
 |---|---|-1-|---|		 |---|---|-5-|---|---|
 |---|---|-5-|---|		 |-1-|---|---|---|---|
 |-1-|---|---|---|		 |-5-|---|---|---|---|



     D-shape			      C-shape
 |---|---|-3-|---|		X|---|---|---|---|---|
 |-6-|---|---|---|		 |---|-1-|---|---|---|
 |---|---|-5-|---|		 |---|---|-6-|---|---|
 |-1-|---|---|---|		 |---|---|-3-|---|---|
 |-5-|---|---|---|		 |---|---|---|-1-|---|
X|---|---|---|---|		 |---|---|---|-5-|---|


      G-shape
|-6-|---|---|---|
|-3-|---|---|---|
|-1-|---|---|---|
|-5-|---|---|---|
|---|---|-3-|---|
|---|---|---|-1-|


m6 (m6) = 1,b3,5,6
---------
Moveable Minor Sixth Chords

|-R-|---|---|-O-|---|---|---|-O-|---|-O-|---|---|-R-|
|-O-|---|-O-|---|---|-R-|---|---|-O-|---|---|---|-O-|
|-O-|---|---|---|-O-|---|-O-|---|---|-R-|---|---|-O-|
|---|---|-R-|---|---|-O-|---|---|---|-O-|---|-O-|---|
|---|---|-O-|---|-O-|---|---|-R-|---|---|-O-|---|---|
|-R-|---|---|-O-|---|---|---|-O-|---|-O-|---|---|-R-|


|-1-|---|---|b3-|---|---|---|-5-|---|-6-|---|---|-1-|
|-5-|---|-6-|---|---|-1-|---|---|b3-|---|---|---|-5-|
|b3-|---|---|---|-5-|---|-6-|---|---|-1-|---|---|b3-|
|---|---|-1-|---|---|b3-|---|---|---|-5-|---|-6-|---|
|---|---|-5-|---|-6-|---|---|-1-|---|---|b3-|---|---|
|-1-|---|---|b3-|---|---|---|-5-|---|-6-|---|---|-1-|


    E-shape			    A-shape
 |-1-|---|---|---|		 |---|---|-6-|---|---|
 |---|---|13-|---|		 |---|b3-|---|---|---|
 |b3-|---|---|---|		 |---|---|-1-|---|---|
 |---|---|-1-|---|		 |---|---|-5-|---|---|
 |---|---|-5-|---|		 |-1-|---|---|---|---|
 |-1-|---|---|---|		 |-5-|---|---|---|---|



     D-shape			      C-shape
 |---|b3-|---|---|		X|---|---|---|---|---|
 |-6-|---|---|---|		 |---|-1-|---|---|---|
 |---|---|-5-|---|		 |---|---|-6-|---|---|
 |-1-|---|---|---|		 |---|b3-|---|---|---|
 |-5-|---|---|---|		 |---|---|---|-1-|---|
X|---|---|---|---|		 |---|---|---|-5-|---|


      G-shape
 |---|---|---|-1-|
 |---|---|---|-5-|
 |---|---|---|b3-|
 |---|---|-6-|---|
 |---|b3-|---|---|
 |---|---|---|-1-|



6/9 = 1,3,5,6
---------
Moveable Major Six-Nine Chords

|-R-|---|-O-|---|-O-|---|---|-O-|---|-O-|---|---|-R-|
|-O-|---|-O-|---|---|-R-|---|-O-|---|-O-|---|---|-O-|
|---|-O-|---|---|-O-|---|-O-|---|---|-R-|---|-O-|---|
|---|---|-R-|---|-O-|---|-O-|---|---|-O-|---|-O-|---|
|---|---|-O-|---|-O-|---|---|-R-|---|-O-|---|-O-|---|
|-R-|---|-O-|---|-O-|---|---|-O-|---|-O-|---|---|-R-|


|-1-|---|-9-|---|-3-|---|---|-5-|---|-6-|---|---|-1-|
|-5-|---|-6-|---|---|-1-|---|-9-|---|-3-|---|---|-5-|
|---|-3-|---|---|-5-|---|-6-|---|---|-1-|---|-9-|---|
|---|---|-1-|---|-9-|---|-3-|---|---|-5-|---|-6-|---|
|---|---|-5-|---|-6-|---|---|-1-|---|-9-|---|-3-|---|
|-1-|---|-9-|---|-3-|---|---|-5-|---|-6-|---|---|-1-|


    E-shape			    A-shape
 |---|---|-9-|---|		 |---|---|-6-|---|---|
 |---|---|13-|---|		 |-9-|---|---|---|---|
 |---|-3-|---|---|		 |---|---|-1-|---|---|
 |---|---|-1-|---|		 |---|---|-5-|---|---|
 |---|---|-5-|---|		 |-1-|---|---|---|---|
 |-1-|---|---|---|		 |-5-|---|---|---|---|



     D-shape			      C-shape
 |-9-|---|---|---|		 |---|---|---|-5-|---|
 |-6-|---|---|---|		 |---|---|---|-9-|---|
 |---|---|-5-|---|		 |---|---|-6-|---|---|
 |-1-|---|---|---|		 |---|---|-3-|---|---|
 |-5-|---|---|---|		 |---|---|---|-1-|---|
X|---|---|---|---|		 |---|---|---|-5-|---|


      G-shape
 |---|---|---|-1-|
 |---|---|---|-5-|
 |---|---|-9-|---|
 |---|---|-6-|---|
 |---|---|-3-|---|
 |---|---|---|-1-|



m6/9 = 1,b3,5,6
---------
Moveable Minor Six-Nine Chords

|-R-|---|-O-|-O-|---|---|---|-O-|---|-O-|---|---|-R-|
|-O-|---|-O-|---|---|-R-|---|-O-|-O-|---|---|---|-O-|
|-O-|---|---|---|-O-|---|-O-|---|---|-R-|---|-O-|-O-|
|---|---|-R-|---|-O-|-O-|---|---|---|-O-|---|-O-|---|
|---|---|-O-|---|-O-|---|---|-R-|---|-O-|-O-|---|---|
|-R-|---|-O-|-O-|---|---|---|-O-|---|-O-|---|---|-R-|


|-1-|---|-9-|b3-|---|---|---|-5-|---|-6-|---|---|-1-|
|-5-|---|-6-|---|---|-1-|---|-9-|b3-|---|---|---|-5-|
|b3-|---|---|---|-5-|---|-6-|---|---|-1-|---|-9-|b3-|
|---|---|-1-|---|-9-|b3-|---|---|---|-5-|---|-6-|---|
|---|---|-5-|---|-6-|---|---|-1-|---|-9-|b3-|---|---|
|-1-|---|-9-|b3-|---|---|---|-5-|---|-6-|---|---|-1-|


    E-shape			    A-shape
 |---|---|-9-|---|		 |---|---|-6-|---|---|
 |---|---|13-|---|		 |---|b3-|---|---|---|
 |b3-|---|---|---|		 |---|---|---|---|-9-|
 |---|---|-1-|---|		 |---|---|-5-|---|---|
 |---|---|-5-|---|		 |-1-|---|---|---|---|
 |-1-|---|---|---|		 |-5-|---|---|---|---|



     D-shape			      C-shape
 |-9-|---|---|---|		 |---|---|---|-5-|---|
 |-6-|---|---|---|		 |---|---|---|-9-|---|
 |---|---|-5-|---|		 |---|---|-6-|---|---|
 |-1-|---|---|---|		 |---|b3-|---|---|---|
 |-5-|---|---|---|		 |---|---|---|-1-|---|
 |---|b3-|---|---|		 |---|---|---|-5-|---|


      G-shape
 |---|---|---|-1-|
 |---|---|---|-5-|
 |---|---|-9-|---|
 |---|---|-6-|---|
 |---|b3-|---|---|
 |---|---|---|-1-|


add2 (add9) = 1,2(9),3,5
---------
Moveable add2 or add9 Chords

|-R-|---|-O-|---|-O-|---|---|-O-|---|---|---|---|-R-|
|-O-|---|---|---|---|-R-|---|-O-|---|-O-|---|---|-O-|
|---|-O-|---|---|-O-|---|---|---|---|-R-|---|-O-|---|
|---|---|-R-|---|-O-|---|-O-|---|---|-O-|---|---|---|
|---|---|-O-|---|---|---|---|-R-|---|-O-|---|-O-|---|
|-R-|---|-O-|---|-O-|---|---|-O-|---|---|---|---|-R-|


|-1-|---|-2-|---|-3-|---|---|-5-|---|---|---|---|-1-|
|-5-|---|---|---|---|-1-|---|-2-|---|-3-|---|---|-5-|
|---|-3-|---|---|-5-|---|---|---|---|-1-|---|-2-|---|
|---|---|-1-|---|-2-|---|-3-|---|---|-5-|---|---|---|
|---|---|-5-|---|---|---|---|-1-|---|-2-|---|-3-|---|
|-1-|---|-2-|---|-3-|---|---|-5-|---|---|---|---|-1-|


    E-shape			    A-shape
 |---|---|-9-|---|		 |-5-|---|---|---|---|
 |-5-|---|---|---|		 |---|---|-3-|---|---|
 |---|-3-|---|---|		 |---|---|---|---|-9-|
 |---|---|-1-|---|		 |---|---|-5-|---|---|
 |---|---|-5-|---|		 |-1-|---|---|---|---|
 |-1-|---|---|---|		 |-5-|---|---|---|---|



     D-shape			      C-shape
 |-2-|---|---|---|		X|---|---|---|---|---|
 |---|---|---|-1-|		 |---|---|---|-2-|---|
 |---|---|-5-|---|		 |-5-|---|---|---|---|
 |-1-|---|---|---|		 |---|---|-3-|---|---|
 |-5-|---|---|---|		 |---|---|---|-1-|---|
 |---|---|-3-|---|		 |---|---|---|-5-|---|


     G-shape
X|---|---|---|---|
 |-3-|---|---|---|
 |---|---|-2-|---|
 |-5-|---|---|---|
X|---|---|---|---|
 |---|---|---|-1-|




madd2 (madd9) = 1,2(9),b3,5
---------
Moveable madd2 or madd9 Chords

|-R-|---|-O-|-O-|---|---|---|-O-|---|---|---|---|-R-|
|-O-|---|---|---|---|-R-|---|-O-|-O-|---|---|---|-O-|
|-O-|---|---|---|-O-|---|---|---|---|-R-|---|-O-|-O-|
|---|---|-R-|---|-O-|-O-|---|---|---|-O-|---|---|---|
|---|---|-O-|---|---|---|---|-R-|---|-O-|-O-|---|---|
|-R-|---|-O-|-O-|---|---|---|-O-|---|---|---|---|-R-|


|-1-|---|-2-|b3-|---|---|---|-5-|---|---|---|---|-1-|
|-5-|---|---|---|---|-1-|---|-2-|b3-|---|---|---|-5-|
|b3-|---|---|---|-5-|---|---|---|---|-1-|---|-2-|b3-|
|---|---|-1-|---|-2-|b3-|---|---|---|-5-|---|---|---|
|---|---|-5-|---|---|---|---|-1-|---|-2-|b3-|---|---|
|-1-|---|-2-|b3-|---|---|---|-5-|---|---|---|---|-1-|


    E-shape			    A-shape
 |---|---|-9-|---|		 |-5-|---|---|---|---|
 |-5-|---|---|---|		 |---|b3-|---|---|---|
 |b3-|---|---|---|		 |---|---|---|---|-9-|
 |---|---|-1-|---|		 |---|---|-5-|---|---|
 |---|---|-5-|---|		 |-1-|---|---|---|---|
 |-1-|---|---|---|		 |-5-|---|---|---|---|



     D-shape			      C-shape
 |-2-|---|---|---|		X|---|---|---|---|---|
 |---|---|---|-1-|		 |---|---|---|-2-|---|
 |---|---|-5-|---|		 |-5-|---|---|---|---|
 |-1-|---|---|---|		 |---|b3-|---|---|---|
 |-5-|---|---|---|		 |---|---|---|-1-|---|
 |---|b3-|---|---|		 |---|---|---|-5-|---|


     G-shape
 |---|---|---|-1-|
 |---|---|---|-5-|
 |---|---|-2-|---|
 |-5-|---|---|---|
 |---|b3-|---|---|
X|---|---|---|---|




add4 = 1,3,4,5
---------
Moveable add4 or add11 Chords

|-R-|---|---|---|-O-|-O-|---|-O-|---|---|---|---|-R-|
|-O-|---|---|---|---|-R-|---|---|---|-O-|-O-|---|-O-|
|---|-O-|-O-|---|-O-|---|---|---|---|-R-|---|---|---|
|---|---|-R-|---|---|---|-O-|-O-|---|-O-|---|---|---|
|-O-|---|-O-|---|---|---|---|-R-|---|---|---|-O-|-O-|
|-R-|---|---|---|-O-|-O-|---|-O-|---|---|---|---|-R-|


|-1-|---|---|---|-3-|-4-|---|-5-|---|---|---|---|-1-|
|-5-|---|---|---|---|-1-|---|---|---|-3-|-4-|---|-5-|
|---|-3-|-4-|---|-5-|---|---|---|---|-1-|---|---|---|
|---|---|-1-|---|---|---|-3-|-4-|---|-5-|---|---|---|
|-4-|---|-5-|---|---|---|---|-1-|---|---|---|-3-|-4-|
|-1-|---|---|---|-3-|-4-|---|-5-|---|---|---|---|-1-|


    E-shape			    A-shape
 |-1-|---|---|---|		 |-5-|---|---|---|---|
 |-5-|---|---|---|		 |---|---|-3-|---|---|
 |---|-3-|---|---|		 |---|---|-1-|---|---|
 |---|---|-1-|---|		 |-4-|---|---|---|---|
 |-4-|---|---|---|		 |-1-|---|---|---|---|
 |-1-|---|---|---|		 |-5-|---|---|---|---|



     D-shape			      C-shape
 |---|---|-3-|---|		 |-3-|---|---|---|---|
 |---|---|---|-1-|		 |---|-1-|---|---|---|
 |-4-|---|---|---|		 |-5-|---|---|---|---|
 |-1-|---|---|---|		 |---|---|---|-4-|---|
 |-5-|---|---|---|		 |---|---|---|-1-|---|
X|---|---|---|---|		 |---|---|---|-5-|---|


     G-shape
 |---|---|---|-1-|
 |-3-|---|---|---|
 |-1-|---|---|---|
 |-5-|---|---|---|
 |---|---|---|-4-|
 |---|---|---|-1-|



Back to:
The Chord Book Index
The chord index
The beginners page
The intermediate page
The advenced page
The guitar homepage


Last updated January 4, 2008
Copyright 2007,2008 all rights reserved.