CHORD BOOK, pg.27

PAGE TWENTY-SEVEN
=================
Alt chords. The alt chord (Calt, etc.) is an altered ninth chord that contains both an altered 5th and altered 9th, and possibly multiples 5ths or ninths but no p5s or M9s.

Any of the following chords could be used when playing an alt chord:
7#9#5, 7#9b5, 7#9#5b5, 7b9#5, 7b9b5, 7b9#5b5, 7#9b9#5, 7#9b9b5, and 7#9b9#5b5.

Moveable Dominant Seven augment nine augment five Chords
-------------------------------------------------------
7+9+5 (7#9#5) = 1,3,#5,b7,#9
=============

|-R-|---|---|-O-|-O-|---|---|---|-O-|---|-O-|---|-R-|
|---|-O-|---|-O-|---|-R-|---|---|-O-|-O-|---|---|---|
|-O-|-O-|---|---|---|-O-|---|-O-|---|-R-|---|---|-O-|
|-O-|---|-R-|---|---|-O-|-O-|---|---|---|-O-|---|-O-|
|---|---|---|-O-|---|-O-|---|-R-|---|---|-O-|-O-|---|
|-R-|---|---|-O-|-O-|---|---|---|-O-|---|-O-|---|-R-|


|-1-|---|---|#9-|-3-|---|---|---|#5-|---|b7-|---|-1-|
|---|#5-|---|b7-|---|-1-|---|---|#9-|-3-|---|---|---|
|#9-|-3-|---|---|---|#5-|---|b7-|---|-1-|---|---|#9-|
|b7-|---|-1-|---|---|#9-|-3-|---|---|---|#5-|---|b7-|
|---|---|---|#5-|---|b7-|---|-1-|---|---|#9-|-3-|---|
|-1-|---|---|#9-|-3-|---|---|---|#5-|---|b7-|---|-1-|



    E-shape			  X  A-shape
 |---|---|---|#9-|		 |---|#5-|---|---|
 |---|#5-|---|---|		 |---|---|-3-|---|
 |---|-3-|---|---|		 |b7-|---|---|---|
 |b7-|---|---|---|		X|---|---|---|---|
X|---|---|---|---|		 |-1-|---|---|---|
 |-1-|---|---|---|		X|---|---|---|---|



     D-shape			      C-shape
 |---|#9-|---|---|		 |---|---|#5-|---|
 |---|b7-|---|---|		 |---|---|#9-|---|
 |---|---|---|#5-|		 |---|b7-|---|---|
 |-1-|---|---|---|		 |-3-|---|---|---|
X|---|---|---|---|		 |---|-1-|---|---|
 |---|---|-3-|---|		X|---|---|---|---|


     G-shape
X|---|-1-|---|---|---|
X|---|---|#5-|---|---|
 |---|#9-|---|---|---|
 |---|b7-|---|---|---|
 |-3-|---|---|---|---|
 |---|-1-|---|---|---|



Moveable Dominant Seven flat nine augment five Chords
-----------------------------------------------------
7-9+5 (7b9#5) = 1,3,#5,b7,b9
=============

|-R-|-O-|---|---|-O-|---|---|---|-O-|---|-O-|---|-R-|
|---|-O-|---|-O-|---|-R-|-O-|---|---|-O-|---|---|---|
|---|-O-|---|---|---|-O-|---|-O-|---|-R-|-O-|---|---|
|-O-|---|-R-|-O-|---|---|-O-|---|---|---|-O-|---|-O-|
|---|---|---|-O-|---|-O-|---|-R-|-O-|---|---|-O-|---|
|-R-|-O-|---|---|-O-|---|---|---|-O-|---|-O-|---|-R-|


|-1-|b9-|---|---|-3-|---|---|---|#5-|---|b7-|---|-1-|
|---|#5-|---|b7-|---|-1-|b9-|---|---|-3-|---|---|---|
|---|-3-|---|---|---|#5-|---|b7-|---|-1-|b9-|---|---|
|b7-|---|-1-|b9-|---|---|-3-|---|---|---|#5-|---|b7-|
|---|---|---|#5-|---|b7-|---|-1-|b9-|---|---|-3-|---|
|-1-|b9-|---|---|-3-|---|---|---|#5-|---|b7-|---|-1-|



    E-shape			  X  A-shape
 |---|b9-|---|---|		 |---|#5-|---|---|
 |---|#5-|---|---|		 |---|---|-3-|---|
 |---|-3-|---|---|		 |b7-|---|---|---|
 |b7-|---|---|---|		X|---|---|---|---|
X|---|---|---|---|		 |-1-|---|---|---|
 |-1-|---|---|---|		X|---|---|---|---|



     D-shape			      C-shape
 |---|---|-3-|---|		 |---|---|#5-|---|
 |---|b7-|---|---|		 |b9-|---|---|---|
 |---|---|---|#5-|		 |---|b7-|---|---|
 |-1-|---|---|---|		 |-3-|---|---|---|
X|---|---|---|---|		 |---|-1-|---|---|
X|---|---|---|---|		X|---|---|---|---|


     G-shape
 |---|---|b9-|---|---|
 |---|---|#5-|---|---|
X|---|---|---|---|---|
 |---|b7-|---|---|---|
 |-3-|---|---|---|---|
 |---|-1-|---|---|---|



Moveable Dominant Seven augment nine flat five Chords
-----------------------------------------------------
7#9b5 (7+9-5) = 1,3,b5,b7
=============

|-R-|---|---|-O-|-O-|---|-O-|---|---|---|-O-|---|-R-|
|---|---|---|-O-|---|-R-|---|---|-O-|-O-|---|-O-|---|
|-O-|-O-|---|-O-|---|---|---|-O-|---|-R-|---|---|-O-|
|-O-|---|-R-|---|---|-O-|-O-|---|-O-|---|---|---|-O-|
|---|-O-|---|---|---|-O-|---|-R-|---|---|-O-|-O-|---|
|-R-|---|---|-O-|-O-|---|-O-|---|---|---|-O-|---|-R-|


|-1-|---|---|#9-|-3-|---|b5-|---|---|---|b7-|---|-1-|
|---|---|---|b7-|---|-1-|---|---|#9-|-3-|---|b5-|---|
|#9-|-3-|---|b5-|---|---|---|b7-|---|-1-|---|---|#9-|
|b7-|---|-1-|---|---|#9-|-3-|---|b5-|---|---|---|b7-|
|---|b5-|---|---|---|b7-|---|-1-|---|---|#9-|-3-|---|
|-1-|---|---|#9-|-3-|---|b5-|---|---|---|b7-|---|-1-|



    E-shape			  X  A-shape
X|---|---|---|---|		 |---|---|---|b7-|
 |b5-|---|---|---|		 |---|---|-3-|---|
 |---|#9-|---|---|		 |b7-|---|---|---|
 |---|b7-|---|---|		 |---|b5-|---|---|
 |-3-|---|---|---|		 |-1-|---|---|---|
 |---|-1-|---|---|		X|---|---|---|---|



     D-shape			      C-shape
 |---|---|---|#9-|		 |b5-|---|---|---|
 |---|b7-|---|---|		 |---|---|#9-|---|
 |---|b5-|---|---|		 |---|b7-|---|---|
 |-1-|---|---|---|		 |-3-|---|---|---|
X|---|---|---|---|		 |---|-1-|---|---|
 |---|---|-3-|---|		X|---|---|---|---|


     G-shape
X|---|b7-|---|---|
 |---|---|b5-|---|
 |---|---|---|#9-|
 |---|---|---|b7-|
X|---|---|(3)|---|
 |---|---|---|-1-|







Moveable Dominant Seven flat nine flat five Chords
--------------------------------------------------
7b9b5 (7-9-5) = 1,3,b5,b7
=============

|-R-|-O-|---|---|-O-|---|-O-|---|---|---|-O-|---|-R-|
|---|---|---|-O-|---|-R-|-O-|---|---|-O-|---|-O-|---|
|---|-O-|---|-O-|---|---|---|-O-|---|-R-|-O-|---|---|
|-O-|---|-R-|-O-|---|---|-O-|---|-O-|---|---|---|-O-|
|---|-O-|---|---|---|-O-|---|-R-|-O-|---|---|-O-|---|
|-R-|-O-|---|---|-O-|---|-O-|---|---|---|-O-|---|-R-|


|-1-|b9-|---|---|-3-|---|b5-|---|---|---|b7-|---|-1-|
|---|---|---|b7-|---|-1-|b9-|---|---|-3-|---|b5-|---|
|---|-3-|---|b5-|---|---|---|b7-|---|-1-|b9-|---|---|
|b7-|---|-1-|b9-|---|---|-3-|---|b5-|---|---|---|b7-|
|---|b5-|---|---|---|b7-|---|-1-|b9-|---|---|-3-|---|
|-1-|b9-|---|---|-3-|---|b5-|---|---|---|b7-|---|-1-|



    E-shape			     A-shape
 |---|---|b9-|---|		 |---|---|---|b7-|
 |b5-|---|---|---|		 |---|---|-3-|---|
 |---|---|-3-|---|		 |---|---|---|b9-|
 |---|b7-|---|---|		 |---|b5-|---|---|
X|---|---|---|---|		 |-1-|---|---|---|
 |---|-1-|---|---|		X|---|---|---|---|



     D-shape			      C-shape
 |b9-|---|---|---|		 |---|---|b5-|---|
 |---|---|b7-|---|		 |---|---|b9-|---|
 |---|---|b5-|---|		 |---|---|---|b7-|
 |---|-1-|---|---|		 |---|---|-3-|---|
X|---|---|---|---|		 |---|---|---|-1-|
 |---|---|---|-3-|		X|---|---|---|---|


     G-shape
X|---|---|---|---|
 |---|---|b5-|---|
 |---|b9-|---|---|
 |---|---|---|b7-|
 |---|---|-3-|---|
 |---|---|---|-1-|



Back to:
The Chord Book Index
The chord index
The beginners page
The intermediate page
The advenced page
The guitar homepage


Last updated January 4, 2008
Copyright 2007,2008 all rights reserved.