CHORD BOOK, pg.26

PAGE TWENTY-SIX
===============
Moveable 7/11,m7/11,m7sus4,maj7/11,maj7#11 chords


7/11 = 1,3,5,b7,11
------
Moveable Seven-Eleven Chords

|-R-|---|---|---|-O-|-O-|---|-O-|---|---|-O-|---|-R-|
|-O-|---|---|-O-|---|-R-|---|---|---|-O-|-O-|---|-O-|
|---|-O-|-O-|---|-O-|---|---|-O-|---|-R-|---|---|---|
|-O-|---|-R-|---|---|---|-O-|-O-|---|-O-|---|---|-O-|
|-O-|---|-O-|---|---|-O-|---|-R-|---|---|---|-O-|-O-|
|-R-|---|---|---|-O-|-O-|---|-O-|---|---|-O-|---|-R-|


|-1-|---|---|---|-3-|11-|---|-5-|---|---|b7-|---|-1-|
|-5-|---|---|b7-|---|-1-|---|---|---|-3-|11-|---|-5-|
|---|-3-|11-|---|-5-|---|---|b7-|---|-1-|---|---|---|
|b7-|---|-1-|---|---|---|-3-|11-|---|-5-|---|---|b7-|
|11-|---|-5-|---|---|b7-|---|-1-|---|---|---|-3-|11-|
|-1-|---|---|---|-3-|11-|---|-5-|---|---|b7-|---|-1-|



    E-shape			    A-shape
 |-1-|---|---|---|		 |-5-|---|---|---|
 |-5-|---|---|---|		 |---|---|-3-|---|
 |---|-3-|---|---|		 |b7-|---|---|---|
 |b7-|---|---|---|		 |11-|---|---|---|
 |11-|---|---|---|		 |-1-|---|---|---|
 |-1-|---|---|---|		 |-5-|---|---|---|



     D-shape			      C-shape
 |---|---|-3-|---|		 |---|11-|---|---|
 |---|b7-|---|---|		 |---|-1-|---|---|
 |11-|---|---|---|		 |---|---|---|b7-|
 |-1-|---|---|---|		 |---|---|-3-|---|
 |-5-|---|---|---|		 |---|---|---|-1-|
X|---|---|---|---|		 |---|---|---|-5-|


     G-shape
 |---|b7-|---|---|
 |---|11-|---|---|
 |-1-|---|---|---|
 |-5-|---|---|---|
 |---|---|-3-|---|
 |---|---|---|-1-|



m7/11 = 1,b3,5,b7,11
--------
Moveable Minor Seven-Eleven Chords

|-R-|---|---|-O-|---|-O-|---|-O-|---|---|-O-|---|-R-|
|-O-|---|---|-O-|---|-R-|---|---|-O-|---|-O-|---|-O-|
|-O-|---|-O-|---|-O-|---|---|-O-|---|-R-|---|---|-O-|
|-O-|---|-R-|---|---|-O-|---|-O-|---|-O-|---|---|-O-|
|-O-|---|-O-|---|---|-O-|---|-R-|---|---|-O-|---|-O-|
|-R-|---|---|-O-|---|-O-|---|-O-|---|---|-O-|---|-R-|


|-1-|---|---|b3-|---|11-|---|-5-|---|---|b7-|---|-1-|
|-5-|---|---|b7-|---|-1-|---|---|b3-|---|11-|---|-5-|
|b3-|---|11-|---|-5-|---|---|b7-|---|-1-|---|---|b3-|
|b7-|---|-1-|---|---|b3-|---|11-|---|-5-|---|---|b7-|
|11-|---|-5-|---|---|b7-|---|-1-|---|---|b3-|---|11-|
|-1-|---|---|b3-|---|11-|---|-5-|---|---|b7-|---|-1-|



    E-shape			    A-shape
 |-1-|---|---|---|		 |-5-|---|---|---|
 |-5-|---|---|---|		 |---|b3-|---|---|
 |b3-|---|---|---|		 |b7-|---|---|---|
 |b7-|---|---|---|		 |11-|---|---|---|
 |11-|---|---|---|		 |-1-|---|---|---|
 |-1-|---|---|---|		 |-5-|---|---|---|



     D-shape			      C-shape
 |---|b3-|---|---|		 |---|11-|---|---|
 |---|b7-|---|---|		 |---|-1-|---|---|
 |11-|---|---|---|		 |---|---|---|b7-|
 |-1-|---|---|---|		 |---|b3-|---|---|
 |-5-|---|---|---|		 |---|---|---|-1-|
X|---|---|---|---|		 |---|---|---|-5-|


     G-shape
X|---|---|---|---|
 |---|11-|---|---|
 |---|---|---|b3-|
 |---|---|---|b7-|
X|---|---|---|---|
 |---|---|---|-1-|



m7sus4 (m7(4)) = 1,b3,4,b7
--------
Moveable Minor Seven sus4 Chords

|-R-|---|---|-O-|---|-O-|---|---|---|---|-O-|---|-R-|
|---|---|---|-O-|---|-R-|---|---|-O-|---|-O-|---|---|
|-O-|---|-O-|---|---|---|---|-O-|---|-R-|---|---|-O-|
|-O-|---|-R-|---|---|-O-|---|-O-|---|---|---|---|-O-|
|-O-|---|---|---|---|-O-|---|-R-|---|---|-O-|---|-O-|
|-R-|---|---|-O-|---|-O-|---|---|---|---|-O-|---|-R-|


|-1-|---|---|b3-|---|-4-|---|---|---|---|b7-|---|-1-|
|---|---|---|b7-|---|-1-|---|---|b3-|---|-4-|---|---|
|b3-|---|-4-|---|---|---|---|b7-|---|-1-|---|---|b3-|
|b7-|---|-1-|---|---|b3-|---|-4-|---|---|---|---|b7-|
|-4-|---|---|---|---|b7-|---|-1-|---|---|b3-|---|-4-|
|-1-|---|---|b3-|---|-4-|---|---|---|---|b7-|---|-1-|



    E-shape			    A-shape
 |---|---|---|b3-|		X|---|---|---|---|
 |---|---|---|b7-|		 |---|b3-|---|---|
 |b3-|---|---|---|		 |b7-|---|---|---|
 |b7-|---|---|---|		 |-4-|---|---|---|
 |-4-|---|---|---|		 |-1-|---|---|---|
 |-1-|---|---|---|		X|---|---|---|---|



     D-shape			      C-shape
 |---|b3-|---|---|		 |---|11-|---|---|
 |---|b7-|---|---|		 |---|-1-|---|---|
 |11-|---|---|---|		 |---|---|---|b7-|
 |-1-|---|---|---|		 |---|b3-|---|---|
X|---|---|---|---|		 |---|---|---|-1-|
X|---|---|---|---|		X|---|---|---|---|


     G-shape
 |---|b7-|---|---|
 |---|11-|---|---|
 |---|---|---|b3-|
 |---|---|---|b7-|
X|---|---|---|---|
 |---|---|---|-1-|



maj7/11 = 1,3,5,7,11
--------
Moveable Major Seven-Eleven Chords

|-R-|---|---|---|-O-|-O-|---|-O-|---|---|---|-O-|-R-|
|-O-|---|---|---|-O-|-R-|---|---|---|-O-|-O-|---|-O-|
|---|-O-|-O-|---|-O-|---|---|---|-O-|-R-|---|---|---|
|---|-O-|-R-|---|---|---|-O-|-O-|---|-O-|---|---|---|
|-O-|---|-O-|---|---|---|-O-|-R-|---|---|---|-O-|-O-|
|-R-|---|---|---|-O-|-O-|---|-O-|---|---|---|-O-|-R-|


|-1-|---|---|---|-3-|11-|---|-5-|---|---|---|-7-|-1-|
|-5-|---|---|---|-7-|-1-|---|---|---|-3-|11-|---|-5-|
|---|-3-|11-|---|-5-|---|---|---|-7-|-1-|---|---|---|
|---|-7-|-1-|---|---|---|-3-|11-|---|-5-|---|---|---|
|11-|---|-5-|---|---|---|-7-|-1-|---|---|---|-3-|11-|
|-1-|---|---|---|-3-|11-|---|-5-|---|---|---|-7-|-1-|



    E-shape			    A-shape
 |-1-|---|---|---|		 |-5-|---|---|---|
 |-5-|---|---|---|		 |---|---|-3-|---|
 |---|-3-|---|---|		 |---|-7-|---|---|
 |---|-7-|---|---|		 |11-|---|---|---|
 |11-|---|---|---|		 |-1-|---|---|---|
 |-1-|---|---|---|		 |-5-|---|---|---|


     D-shape			      C-shape
 |---|---|-3-|---|		 |-3-|---|---|---|
 |---|---|-7-|---|		 |-7-|---|---|---|
 |11-|---|---|---|		 |-5-|---|---|---|
 |-1-|---|---|---|		 |---|---|---|11-|
 |-5-|---|---|---|		 |---|---|---|-1-|
X|---|---|---|---|		 |---|---|---|-5-|


     G-shape
 |---|---|-7-|---|
 |---|11-|---|---|
 |-1-|---|---|---|
 |-5-|---|---|---|
 |---|---|-3-|---|
X|---|---|---|---|



maj7#11 = 1,3,5,7,#11
--------
Moveable Major Seven augmented Eleventh Chords

|-R-|---|---|---|-O-|---|-O-|-O-|---|---|---|-O-|-R-|
|-O-|---|---|---|-O-|-R-|---|---|---|-O-|---|-O-|-O-|
|---|-O-|---|-O-|-O-|---|---|---|-O-|-R-|---|---|---|
|---|-O-|-R-|---|---|---|-O-|---|-O-|-O-|---|---|---|
|---|-O-|-O-|---|---|---|-O-|-R-|---|---|---|-O-|---|
|-R-|---|---|---|-O-|---|-O-|-O-|---|---|---|-O-|-R-|


|-1-|---|---|---|-3-|---|#11|-5-|---|---|---|-7-|-1-|
|-5-|---|---|---|-7-|-1-|---|---|---|-3-|---|#11|-5-|
|---|-3-|---|#11|-5-|---|---|---|-7-|-1-|---|---|---|
|---|-7-|-1-|---|---|---|-3-|---|#11|-5-|---|---|---|
|---|#11|-5-|---|---|---|-7-|-1-|---|---|---|-3-|---|
|-1-|---|---|---|-3-|---|#11|-5-|---|---|---|-7-|-1-|



    E-shape			    A-shape
 |-1-|---|---|---|		 |-5-|---|---|---|
 |-5-|---|---|---|		 |---|---|-3-|---|
 |---|-3-|---|---|		 |---|-7-|---|---|
 |---|-7-|---|---|		 |---|#11|---|---|
 |---|#11|---|---|		 |-1-|---|---|---|
 |-1-|---|---|---|		 |-5-|---|---|---|


     D-shape			      C-shape
 |---|---|-3-|---|		 |---|---|#11|---|
 |---|---|-7-|---|		 |-7-|---|---|---|
 |---|#11|---|---|		 |-5-|---|---|---|
 |-1-|---|---|---|		 |---|---|-3-|---|
 |-5-|---|---|---|		 |---|---|---|-1-|
X|---|---|---|---|		 |---|---|---|-5-|


     G-shape
 |---|---|-7-|---|
 |---|---|#11|---|
 |-1-|---|---|---|
 |-5-|---|---|---|
 |---|---|-3-|---|
X|---|---|---|---|


Back to:
The Chord Book Index
The chord index
The beginners page
The intermediate page
The advenced page
The guitar homepage


Last updated January 4, 2008
Copyright 2007,2008 all rights reserved.