CHORD BOOK, pg.25

PAGE TWENTY-FIVE
================
Moveable 7+5, 7b5,7#9,7b9,m7b9,m/maj7,maj7+5


Moveable Dominant Seven augment five Chords
-------------------------------------------
7+5 (7#5) = 1,3,#5,b7
=========

|-R-|---|---|---|-O-|---|---|---|-O-|---|-O-|---|-R-|
|---|-O-|---|-O-|---|-R-|---|---|---|-O-|---|---|---|
|---|-O-|---|---|---|-O-|---|-O-|---|-R-|---|---|---|
|-O-|---|-R-|---|---|---|-O-|---|---|---|-O-|---|-O-|
|---|---|---|-O-|---|-O-|---|-R-|---|---|---|-O-|---|
|-R-|---|---|---|-O-|---|---|---|-O-|---|-O-|---|-R-|


|-1-|---|---|---|-3-|---|---|---|#5-|---|b7-|---|-1-|
|---|#5-|---|b7-|---|-1-|---|---|---|-3-|---|---|---|
|---|-3-|---|---|---|#5-|---|b7-|---|-1-|---|---|---|
|b7-|---|-1-|---|---|---|-3-|---|---|---|#5-|---|b7-|
|---|---|---|#5-|---|b7-|---|-1-|---|---|---|-3-|---|
|-1-|---|---|---|-3-|---|---|---|#5-|---|b7-|---|-1-|



    E-shape			    A-shape
X|---|---|---|---|		 |---|#5-|---|---|
 |---|#5-|---|---|		 |---|---|-3-|---|
 |---|-3-|---|---|		 |b7-|---|---|---|
 |b7-|---|---|---|		X|---|---|---|---|
X|---|---|---|---|		 |-1-|---|---|---|
 |-1-|---|---|---|		X|---|---|---|---|



     D-shape			      C-shape
 |---|---|-3-|---|		 |---|---|#5-|---|
 |---|b7-|---|---|		X|---|---|---|---|
 |---|---|---|#5-|		 |---|b7-|---|---|
 |-1-|---|---|---|		 |-3-|---|---|---|
X|---|---|---|---|		 |---|-1-|---|---|
X|---|---|---|---|		X|---|---|---|---|


     G-shape
X|---|---|---|---|---|
 |---|---|#5-|---|---|
X|---|---|---|---|---|
 |---|b7-|---|---|---|
 |-3-|---|---|---|---|
 |---|-1-|---|---|---|



Moveable Dominant Seven flat five Chords
----------------------------------------
7b5 (7-5) = 1,3,b5,b7
=========

|-R-|---|---|---|-O-|---|-O-|---|---|---|-O-|---|-R-|
|---|---|---|-O-|---|-R-|---|---|---|-O-|---|-O-|---|
|---|-O-|---|-O-|---|---|---|-O-|---|-R-|---|---|---|
|-O-|---|-R-|---|---|---|-O-|---|-O-|---|---|---|-O-|
|---|-O-|---|---|---|-O-|---|-R-|---|---|---|-O-|---|
|-R-|---|---|---|-O-|---|-O-|---|---|---|-O-|---|-R-|


|-1-|---|---|---|-3-|---|b5-|---|---|---|b7-|---|-1-|
|---|---|---|b7-|---|-1-|---|---|---|-3-|---|b5-|---|
|---|-3-|---|b5-|---|---|---|b7-|---|-1-|---|---|---|
|b7-|---|-1-|---|---|---|-3-|---|b5-|---|---|---|b7-|
|---|b5-|---|---|---|b7-|---|-1-|---|---|---|-3-|---|
|-1-|---|---|---|-3-|---|b5-|---|---|---|b7-|---|-1-|



    E-shape			    A-shape
X|---|---|---|---|		 |---|---|---|b7-|
 |b5-|---|---|---|		 |---|---|-3-|---|
 |---|---|-3-|---|		 |b7-|---|---|---|
 |---|b7-|---|---|		 |---|b5-|---|---|
X|---|---|---|---|		 |-1-|---|---|---|
 |---|-1-|---|---|		X|---|---|---|---|



     D-shape			      C-shape
 |---|---|-3-|---|		 |---|---|b5-|---|
 |---|b7-|---|---|		X|---|---|---|---|
 |---|b5-|---|---|		 |---|---|---|b7-|
 |-1-|---|---|---|		 |---|---|-3-|---|
X|---|---|---|---|		 |---|---|---|-1-|
X|---|---|---|---|		X|---|---|---|---|


     G-shape
X|---|---|---|---|
 |---|---|b5-|---|
X|---|---|---|---|
 |---|---|---|b7-|
 |---|---|-3-|---|
 |---|---|---|-1-|



Moveable Dominant Seven sharp nine Chords
-----------------------------------------
7#9 (7+9) = 1,3,5,b7,#9
=========

|-R-|---|---|-O-|-O-|---|---|-O-|---|---|-O-|---|-R-|
|-O-|---|---|-O-|---|-R-|---|---|-O-|-O-|---|---|-O-|
|-O-|-O-|---|---|-O-|---|---|-O-|---|-R-|---|---|-O-|
|-O-|---|-R-|---|---|-O-|-O-|---|---|-O-|---|---|-O-|
|---|---|-O-|---|---|-O-|---|-R-|---|---|-O-|-O-|---|
|-R-|---|---|-O-|-O-|---|---|-O-|---|---|-O-|---|-R-|


|-1-|---|---|#9-|-3-|---|---|-5-|---|---|b7-|---|-1-|
|-5-|---|---|b7-|---|-1-|---|---|#9-|-3-|---|---|-5-|
|#9-|-3-|---|---|-5-|---|---|b7-|---|-1-|---|---|#9-|
|b7-|---|-1-|---|---|#9-|-3-|---|---|-5-|---|---|b7-|
|---|---|-5-|---|---|b7-|---|-1-|---|---|#9-|-3-|---|
|-1-|---|---|#9-|-3-|---|---|-5-|---|---|b7-|---|-1-|



    E-shape			    A-shape
 |---|---|---|#9-|		 |---|---|---|---|b7-|
 |---|---|---|b7-|		 |---|---|#9-|---|---|
 |---|-3-|---|---|		 |---|---|---|-1-|---|
 |b7-|---|---|---|		 |-3-|---|---|---|---|
 |---|---|-5-|---|		 |---|-1-|---|---|---|
 |-1-|---|---|---|		 |---|-5-|---|---|---|



     D-shape			      C-shape
 |---|---|#9-|---|		X|---|---|---|---|
 |---|---|b7-|---|		 |---|---|#9-|---|
 |-3-|---|---|---|		 |---|b7-|---|---|
 |---|-1-|---|---|		 |-3-|---|---|---|
 |---|-5-|---|---|		 |---|-1-|---|---|
X|---|---|---|---|		 |---|-5-|---|---|


     G-shape
|---|---|---|-1-|
|---|---|---|-5-|
|---|---|---|#9-|
|---|---|---|b7-|
|---|---|-3-|---|
|---|---|---|-1-|



Moveable Dominant Seven flat nine Chords
----------------------------------------
7b9 (7-9) = 1,3,5,b7,b9
=========

|-R-|-O-|---|---|-O-|---|---|-O-|---|---|-O-|---|-R-|
|-O-|---|---|-O-|---|-R-|-O-|---|---|-O-|---|---|-O-|
|---|-O-|---|---|-O-|---|---|-O-|---|-R-|-O-|---|---|
|-O-|---|-R-|-O-|---|---|-O-|---|---|-O-|---|---|-O-|
|---|---|-O-|---|---|-O-|---|-R-|-O-|---|---|-O-|---|
|-R-|-O-|---|---|-O-|---|---|-O-|---|---|-O-|---|-R-|


|-1-|b9-|---|---|-3-|---|---|-5-|---|---|b7-|---|-1-|
|-5-|---|---|b7-|---|-1-|b9-|---|---|-3-|---|---|-5-|
|---|-3-|---|---|-5-|---|---|b7-|---|-1-|b9-|---|---|
|b7-|---|-1-|b9-|---|---|-3-|---|---|-5-|---|---|b7-|
|---|---|-5-|---|---|b7-|---|-1-|b9-|---|---|-3-|---|
|-1-|b9-|---|---|-3-|---|---|-5-|---|---|b7-|---|-1-|



    E-shape			    A-shape
 |---|b9-|---|---|		 |---|---|---|b7-|
 |-5-|---|---|---|		 |---|---|-3-|---|
 |---|-3-|---|---|		 |---|---|---|b9-|
 |b7-|---|---|---|		 |---|---|-5-|---|
X|---|---|---|---|		 |-1-|---|---|---|
 |-1-|---|---|---|		 |-5-|---|---|---|



     D-shape			      C-shape
 |b9-|---|---|---|		X|---|---|---|---|
 |---|---|b7-|---|		 |---|---|b9-|---|
 |-3-|---|---|---|		 |---|---|---|b7-|
 |---|-1-|---|---|		 |---|---|-3-|---|
 |---|-5-|---|---|		 |---|---|---|-1-|
X|---|---|---|---|		 |---|---|---|-5-|


     G-shape
X|---|---|---|---|
X|---|---|---|---|
 |---|b9-|---|---|
 |---|---|---|b7-|
 |---|---|-3-|---|
 |---|---|---|-1-|



Moveable Minor seven flat nine chords
-------------------------------------
m7b9 = 1,b3,5,b7,b9
====


|-R-|-O-|---|-O-|---|---|---|-O-|---|---|-O-|---|-R-|
|-O-|---|---|-O-|---|-R-|-O-|---|-O-|---|---|---|-O-|
|-O-|---|---|---|-O-|---|---|-O-|---|-R-|-O-|---|-O-|
|-O-|---|-R-|-O-|---|-O-|---|---|---|-O-|---|---|-O-|
|---|---|-O-|---|---|-O-|---|-R-|-O-|---|-O-|---|---|
|-R-|-O-|---|-O-|---|---|---|-O-|---|---|-O-|---|-R-|


|-1-|b9-|---|b3-|---|---|---|-5-|---|---|b7-|---|-1-|
|-5-|---|---|b7-|---|-1-|b9-|---|b3-|---|---|---|-5-|
|b3-|---|---|---|-5-|---|---|b7-|---|-1-|b9-|---|b3-|
|b7-|---|-1-|b9-|---|b3-|---|---|---|-5-|---|---|b7-|
|---|---|-5-|---|---|b7-|---|-1-|b9-|---|b3-|---|---|
|-1-|b9-|---|b3-|---|---|---|-5-|---|---|b7-|---|-1-|


    E-shape			    A-shape
 |---|b9-|---|---|		 |---|---|---|b7-|
 |-5-|---|---|---|		 |---|b3-|---|---|
 |b3-|---|---|---|		 |---|---|---|b9-|
 |b7-|---|---|---|		 |---|---|-5-|---|
 |---|---|-5-|---|		 |-1-|---|---|---|
 |-1-|---|---|---|		 |-5-|---|---|---|



     D-shape			      C-shape
 |---|b3-|---|---|		X|---|---|---|---|
 |---|b7-|---|---|		 |---|---|b9-|---|
 |---|---|-5-|---|		 |---|---|---|b7-|
 |(R)|b9-|---|---|		 |---|b3-|---|---|
 |-5-|---|---|---|		 |---|---|---|-1-|
X|---|---|---|---|		X|---|---|---|-5-|


     G-shape
|---|---|---|b9-|
|---|---|-5-|---|
|---|---|b3-|---|
|---|---|b7-|---|
|b3-|---|---|---|
|---|---|-1-|---|



Moveable minor major seven chords
---------------------------------
m/maj7 = 1,b3,5,7
======


|-R-|---|---|-O-|---|---|---|-O-|---|---|---|-O-|-R-|
|-O-|---|---|---|-O-|-R-|---|---|-O-|---|---|---|-O-|
|-O-|---|---|---|-O-|---|---|---|-O-|-R-|---|---|-O-|
|---|-O-|-R-|---|---|-O-|---|---|---|-O-|---|---|---|
|---|---|-O-|---|---|---|-O-|-R-|---|---|-O-|---|---|
|-R-|---|---|-O-|---|---|---|-O-|---|---|---|-O-|-R-|


|-1-|---|---|b3-|---|---|---|-5-|---|---|---|-7-|-1-|
|-5-|---|---|---|-7-|-1-|---|---|b3-|---|---|---|-5-|
|b3-|---|---|---|-5-|---|---|---|-7-|-1-|---|---|b3-|
|---|-7-|-1-|---|---|b3-|---|---|---|-5-|---|---|---|
|---|---|-5-|---|---|---|-7-|-1-|---|---|b3-|---|---|
|-1-|---|---|b3-|---|---|---|-5-|---|---|---|-7-|-1-|


    E-shape			    A-shape
 |---|---|---|---|		 |-5-|---|---|---|
 |-5-|---|---|---|		 |---|b3-|---|---|
 |b3-|---|---|---|		 |---|-7-|---|---|
 |---|-7-|---|---|		 |---|---|-5-|---|
X|---|---|---|---|		 |-1-|---|---|---|
 |-1-|---|---|---|		 |-5-|---|---|---|



     D-shape			      C-shape
 |---|b3-|---|---|		 |---|---|---|---|
 |---|---|-7-|---|		 |-7-|---|---|---|
 |---|---|-5-|---|		 |-5-|---|---|---|
 |-1-|---|---|---|		 |---|b3-|---|---|
 |-5-|---|---|---|		 |---|---|---|-1-|
X|---|---|---|---|		X|---|---|---|-5-|


     G-shape
 |---|---|-7-|---|
 |---|---|---|-5-|
 |---|---|---|b3-|
X|---|---|---|---|
X|---|---|---|---|
 |---|---|---|-1-|




Moveable Major Seven augment five Chords
-------------------------------------------
maj7+5 (maj7#5) = 1,3,#5,7
=========

|-R-|---|---|---|-O-|---|---|---|-O-|---|---|-O-|-R-|
|---|-O-|---|---|-O-|-R-|---|---|---|-O-|---|---|---|
|---|-O-|---|---|---|-O-|---|---|-O-|-R-|---|---|---|
|---|-O-|-R-|---|---|---|-O-|---|---|---|-O-|---|---|
|---|---|---|-O-|---|---|-O-|-R-|---|---|---|-O-|---|
|-R-|---|---|---|-O-|---|---|---|-O-|---|---|-O-|-R-|


|-1-|---|---|---|-3-|---|---|---|#5-|---|---|-7-|-1-|
|---|#5-|---|---|-7-|-1-|---|---|---|-3-|---|---|---|
|---|-3-|---|---|---|#5-|---|---|-7-|-1-|---|---|---|
|---|---|-1-|---|---|---|-3-|---|---|---|#5-|---|---|
|---|---|---|#5-|---|---|-7-|-1-|---|---|---|-3-|---|
|-1-|---|---|---|-3-|---|---|---|#5-|---|---|-7-|-1-|



    E-shape			    A-shape
X|---|---|---|---|		 |---|#5-|---|---|
 |---|#5-|---|---|		 |---|---|-3-|---|
 |---|-3-|---|---|		 |---|-7-|---|---|
 |---|-7-|---|---|		X|---|---|---|---|
X|---|---|---|---|		 |-1-|---|---|---|
 |-1-|---|---|---|		X|---|---|---|---|



     D-shape			      C-shape
 |---|---|-3-|---|		 |---|---|#5-|---|
 |---|---|-7-|---|		X|---|---|---|---|
 |---|---|---|#5-|		 |---|---|-7-|---|
 |-1-|---|---|---|		 |-3-|---|---|---|
X|---|---|---|---|		 |---|-1-|---|---|
X|---|---|---|---|		X|---|---|---|---|


     G-shape
 |-7-|---|---|---|---|
 |---|---|#5-|---|---|
 |---|---|-3-|---|---|
X|---|---|---|---|---|
X|---|---|---|---|---|
 |---|-1-|---|---|---|



Back to:
The Chord Book Index
The chord index
The beginners page
The intermediate page
The advenced page
The guitar homepage


Last updated January 4, 2008
Copyright 2007,2008 all rights reserved.