CHORD BOOK, pg.24

PAGE TWENTY-FOUR
================
Moveable 13, maj13, m13 chords


13 (dom13); 13 = 1,3,5,b7,9,11,13
--------
Moveable Dominant Thirteenth Chords

|-R-|---|-O-|---|-O-|-O-|---|-O-|---|-O-|-O-|---|-R-|
|-O-|---|-O-|-O-|---|-R-|---|-O-|---|-O-|-O-|---|-O-|
|---|-O-|-O-|---|-O-|---|-O-|-O-|---|-R-|---|-O-|---|
|-O-|---|-R-|---|-O-|---|-O-|-O-|---|-O-|---|-O-|-O-|
|-O-|---|-O-|---|-O-|-O-|---|-R-|---|-O-|---|-O-|-O-|
|-R-|---|-O-|---|-O-|-O-|---|-O-|---|-O-|-O-|---|-R-|


|-1-|---|-9-|---|-3-|11-|---|-5-|---|13-|b7-|---|-1-|
|-5-|---|13-|b7-|---|-1-|---|-9-|---|-3-|11-|---|-5-|
|---|-3-|11-|---|-5-|---|13-|b7-|---|-1-|---|-9-|---|
|b7-|---|-1-|---|-9-|---|-3-|11-|---|-5-|---|13-|b7-|
|11-|---|-5-|---|13-|b7-|---|-1-|---|-9-|---|-3-|11-|
|-1-|---|-9-|---|-3-|11-|---|-5-|---|13-|b7-|---|-1-|



    E-shape			    A-shape
 |---|---|-9-|---|		 |---|---|---|13-|---|
 |---|---|13-|---|		 |---|-9-|---|---|---|
 |---|-3-|---|---|		 |---|b7-|---|---|---|
 |b7-|---|---|---|		 |-3-|---|---|---|---|
 |11-|---|---|---|		 |---|-1-|---|---|---|
 |-1-|---|---|---|		 |---|-5-|---|---|---|



   X  D-shape			   X   C-shape
 |-9-|---|---|---|		 |---|---|---|-5-|
 |---|b7-|---|---|		 |---|---|---|-9-|
 |11-|---|---|---|		 |---|---|---|b7-|
 |-1-|---|---|---|		 |---|---|---|11-|
 |-5-|---|---|---|		 |---|---|---|-1-|
X|---|---|-3-|---|		 |---|---|---|---|


     G-shape
|13-|---|---|---|
|-3-|---|---|---|
|---|---|-9-|---|
|---|---|---|b7-|
|---|---|---|---|
|---|---|---|-1-|



Maj13; maj13 = 1,3,5,7,9,11,13
----
Moveable Major Thirteenth Chords

|-R-|---|-O-|---|-O-|-O-|---|-O-|---|-O-|---|-O-|-R-|
|-O-|---|-O-|---|-O-|-R-|---|-O-|---|-O-|-O-|---|-O-|
|---|-O-|-O-|---|-O-|---|-O-|---|-O-|-R-|---|-O-|---|
|---|-O-|-R-|---|-O-|---|-O-|-O-|---|-O-|---|-O-|---|
|-O-|---|-O-|---|-O-|---|-O-|-R-|---|-O-|---|-O-|-O-|
|-R-|---|-O-|---|-O-|-O-|---|-O-|---|-O-|---|-O-|-R-|


|-1-|---|-9-|---|-3-|11-|---|-5-|---|13-|---|-7-|-1-|
|-5-|---|13-|---|-7-|-1-|---|-9-|---|-3-|11-|---|-5-|
|---|-3-|11-|---|-5-|---|13-|---|-7-|-1-|---|-9-|---|
|---|-7-|-1-|---|-9-|---|-3-|11-|---|-5-|---|13-|---|
|11-|---|-5-|---|13-|---|-7-|-1-|---|-9-|---|-3-|11-|
|-1-|---|-9-|---|-3-|11-|---|-5-|---|13-|---|-7-|-1-|



    E-shape			    A-shape
 |-7-|---|---|---|		 |---|---|13-|---|---|
 |---|-5-|---|---|		 |---|---|-3-|---|---|
 |-9-|---|---|---|		 |---|-7-|---|---|---|
 |13-|---|---|---|		 |11-|---|---|---|---|
 |-3-|---|---|---|		 |-1-|---|---|---|---|
 |---|-1-|---|---|		 |-5-|---|---|---|---|



  X   D-shape			      C-shape
 |-9-|---|---|---|		 |-3-|---|---|---|
 |---|---|-7-|---|		 |-7-|---|---|---|
 |11-|---|---|---|		 |---|---|13-|---|
 |-1-|---|---|---|		 |-9-|---|---|---|
 |-5-|---|---|---|		 |---|---|---|-1-|
X|---|---|---|---|		 |---|---|---|-5-|


 X    G-shape
|---|---|-7-|---|
|---|11-|---|---|
|-1-|---|---|---|
|-5-|---|---|---|
|-9-|---|---|---|
|---|---|---|-1-|


m13 (min13) = 1,b3,5,b7,9,11,13
---------
Moveable Minor Thirteenth Chords

|-R-|---|-O-|-O-|---|-O-|---|-O-|---|-O-|-O-|---|-R-|
|-O-|---|-O-|-O-|---|-R-|---|-O-|-O-|---|-O-|---|-O-|
|-O-|---|-O-|---|-O-|---|-O-|-O-|---|-R-|---|-O-|-O-|
|-O-|---|-R-|---|-O-|-O-|---|-O-|---|-O-|---|-O-|-O-|
|-O-|---|-O-|---|-O-|-O-|---|-R-|---|-O-|-O-|---|-O-|
|-R-|---|-O-|-O-|---|-O-|---|-O-|---|-O-|-O-|---|-R-|


|-1-|---|-9-|b3-|---|11-|---|-5-|---|13-|b7-|---|-1-|
|-5-|---|13-|b7-|---|-1-|---|-9-|b3-|---|11-|---|-5-|
|b3-|---|11-|---|-5-|---|13-|b7-|---|-1-|---|-9-|b3-|
|b7-|---|-1-|---|-9-|b3-|---|11-|---|-5-|---|13-|b7-|
|11-|---|-5-|---|13-|b7-|---|-1-|---|-9-|b3-|---|11-|
|-1-|---|-9-|b3-|---|11-|---|-5-|---|13-|b7-|---|-1-|


    E-shape			    A-shape
 |---|---|-9-|---|		 |---|---|13-|---|---|
 |---|---|13-|---|		 |---|b3-|---|---|---|
 |b3-|---|---|---|		 |b7-|---|---|---|---|
 |b7-|---|---|---|		 |11-|---|---|---|---|
 |11-|---|---|---|		 |-1-|---|---|---|---|
 |-1-|---|---|---|		 |-5-|---|---|---|---|



  X   D-shape			      C-shape
 |-9-|b3-|---|---|		 |---|---|---|---|13-|
 |---|b7-|---|---|		 |---|---|-9-|---|---|
 |11-|---|---|---|		 |---|---|b7-|---|---|
 |-1-|---|---|---|		 |b3-|---|---|---|---|
 |-5-|---|---|---|		 |---|---|-1-|---|---|
X|---|---|---|---|		X|---|---|-5-|---|---|


 X    G-shape
|---|b7-|---|---|
|---|11-|---|---|
|---|---|-9-|---|
|---|---|---|b7-|
|---|b3-|---|---|
|---|---|---|-1-|



Back to:
The Chord Book Index
The chord index
The beginners page
The intermediate page
The advenced page
The guitar homepage


Last updated January 4, 2008
Copyright 2007,2008 all rights reserved.