CHORD BOOK, pg.23

PAGE TWENTY-THREE
=================
Moveable 11, maj11, m11 chords


11 (dom11); 11 = 1,3,5,b7,9,11
--------
Moveable Dominant Eleventh Chords

|-R-|---|-O-|---|-O-|-O-|---|-O-|---|---|-O-|---|-R-|
|-O-|---|---|-O-|---|-R-|---|-O-|---|-O-|-O-|---|-O-|
|---|-O-|-O-|---|-O-|---|---|-O-|---|-R-|---|-O-|---|
|-O-|---|-R-|---|-O-|---|-O-|-O-|---|-O-|---|---|-O-|
|-O-|---|-O-|---|---|-O-|---|-R-|---|-O-|---|-O-|-O-|
|-R-|---|-O-|---|-O-|-O-|---|-O-|---|---|-O-|---|-R-|


|-1-|---|-9-|---|-3-|11-|---|-5-|---|---|b7-|---|-1-|
|-5-|---|---|b7-|---|-1-|---|-9-|---|-3-|11-|---|-5-|
|---|-3-|11-|---|-5-|---|---|b7-|---|-1-|---|-9-|---|
|b7-|---|-1-|---|-9-|---|-3-|11-|---|-5-|---|---|b7-|
|11-|---|-5-|---|---|b7-|---|-1-|---|-9-|---|-3-|11-|
|-1-|---|-9-|---|-3-|11-|---|-5-|---|---|b7-|---|-1-|



    E-shape			    A-shape
 |---|---|-9-|---|		 |---|---|---|b7-|---|
 |-5-|---|---|---|		 |---|---|-3-|---|---|
 |---|-3-|---|---|		 |---|---|---|---|-9-|
 |b7-|---|---|---|		 |11-|---|---|---|---|
 |11-|---|---|---|		 |-1-|---|---|---|---|
 |-1-|---|---|---|		 |-5-|---|---|---|---|



     D-shape			      C-shape
 |-9-|---|---|---|		 |---|11-|---|---|
 |---|b7-|---|---|		 |---|---|---|-9-|
 |11-|---|---|---|		 |---|---|---|b7-|
 |-1-|---|---|---|		 |---|---|-3-|---|
 |-5-|---|---|---|		 |---|---|---|-1-|
X|---|---|-3-|---|		 |---|---|---|-5-|


     G-shape
 |---|b7-|---|---|
 |---|11-|---|---|
 |---|---|-9-|---|
 |---|---|---|b7-|
X|---|---|---|---|
 |---|---|---|-1-|



Maj11; maj11 = 1,3,5,7,9,11
----
Moveable Major Eleventh Chords

|-R-|---|-O-|---|-O-|-O-|---|-O-|---|---|---|-O-|-R-|
|-O-|---|---|---|-O-|-R-|---|-O-|---|-O-|-O-|---|-O-|
|---|-O-|-O-|---|-O-|---|---|---|-O-|-R-|---|-O-|---|
|---|-O-|-R-|---|-O-|---|-O-|-O-|---|-O-|---|---|---|
|-O-|---|-O-|---|---|---|-O-|-R-|---|-O-|---|-O-|-O-|
|-R-|---|-O-|---|-O-|-O-|---|-O-|---|---|---|-O-|-R-|


|-1-|---|-9-|---|-3-|11-|---|-5-|---|---|---|-7-|-1-|
|-5-|---|---|---|-7-|-1-|---|-9-|---|-3-|11-|---|-5-|
|---|-3-|11-|---|-5-|---|---|---|-7-|-1-|---|-9-|---|
|---|-7-|-1-|---|-9-|---|-3-|11-|---|-5-|---|---|---|
|11-|---|-5-|---|---|---|-7-|-1-|---|-9-|---|-3-|11-|
|-1-|---|-9-|---|-3-|11-|---|-5-|---|---|---|-7-|-1-|



    E-shape			    A-shape
 |-7-|---|---|---|		 |---|---|---|---|-7-|
 |---|-5-|---|---|		 |---|---|-3-|---|---|
 |-9-|---|---|---|		 |---|---|---|---|-9-|
 |---|---|-7-|---|		 |11-|---|---|---|---|
 |---|11-|---|---|		 |-1-|---|---|---|---|
 |---|-1-|---|---|		 |-5-|---|---|---|---|



     D-shape			      C-shape
 |-9-|---|---|---|		 |---|-5-|---|---|
 |---|---|-7-|---|		 |---|-9-|---|---|
 |11-|---|---|---|		 |---|---|-7-|---|
 |-1-|---|---|---|		 |---|11-|---|---|
 |-5-|---|---|---|		 |---|-1-|---|---|
X|---|---|---|---|		 |---|---|---|---|


     G-shape
|---|---|-7-|---|
|---|11-|---|---|
|-1-|---|---|---|
|-5-|---|---|---|
|-9-|---|---|---|
|---|---|---|-1-|


m11 (min11) = 1,b3,5,b7,9,11
---------
Moveable Minor Eleventh Chords

|-R-|---|-O-|-O-|---|-O-|---|-O-|---|---|-O-|---|-R-|
|-O-|---|---|-O-|---|-R-|---|-O-|-O-|---|-O-|---|-O-|
|-O-|---|-O-|---|-O-|---|---|-O-|---|-R-|---|-O-|-O-|
|-O-|---|-R-|---|-O-|-O-|---|-O-|---|-O-|---|---|-O-|
|-O-|---|-O-|---|---|-O-|---|-R-|---|-O-|-O-|---|-O-|
|-R-|---|-O-|-O-|---|-O-|---|-O-|---|---|-O-|---|-R-|


|-1-|---|-9-|b3-|---|11-|---|-5-|---|---|b7-|---|-1-|
|-5-|---|---|b7-|---|-1-|---|-9-|b3-|---|11-|---|-5-|
|b3-|---|11-|---|-5-|---|---|b7-|---|-1-|---|-9-|b3-|
|b7-|---|-1-|---|-9-|b3-|---|11-|---|-5-|---|---|b7-|
|11-|---|-5-|---|---|b7-|---|-1-|---|-9-|b3-|---|11-|
|-1-|---|-9-|b3-|---|11-|---|-5-|---|---|b7-|---|-1-|


    E-shape			    A-shape
 |---|---|-9-|---|		 |---|---|---|b7-|---|
 |-5-|---|---|---|		 |---|b3-|---|---|---|
 |b3-|---|---|---|		 |---|---|---|---|-9-|
 |b7-|---|---|---|		 |11-|---|---|---|---|
 |11-|---|---|---|		 |-1-|---|---|---|---|
 |-1-|---|---|---|		 |-5-|---|---|---|---|



     D-shape			      C-shape
 |-9-|b3-|---|---|		 |---|11-|---|---|
 |---|b7-|---|---|		 |---|---|---|-9-|
 |11-|---|---|---|		 |---|---|---|b7-|
 |-1-|---|---|---|		 |---|b3-|---|---|
 |-5-|---|---|---|		 |---|---|---|-1-|
X|---|---|---|---|		X|---|---|---|-5-|


     G-shape
|---|b7-|---|---|
|---|11-|---|---|
|---|---|-9-|---|
|---|---|---|b7-|
|---|b3-|---|---|
|---|---|---|-1-|



Back to:
The Chord Book Index
The chord index
The beginners page
The intermediate page
The advenced page
The guitar homepage


Last updated January 4, 2008
Copyright 2007,2008 all rights reserved.