CHORD BOOK, pg.22

PAGE TWENTY-TWO
===============
Moveable 9, maj9, m9 chords


9 (dom9); 9 = 1,3,5,b7,9
--------
Moveable Dominant Nine Chords

|-R-|---|-O-|---|-O-|---|---|-O-|---|---|-O-|---|-R-|
|-O-|---|---|-O-|---|-R-|---|-O-|---|-O-|---|---|-O-|
|---|-O-|---|---|-O-|---|---|-O-|---|-R-|---|-O-|---|
|-O-|---|-R-|---|-O-|---|-O-|---|---|-O-|---|---|-O-|
|---|---|-O-|---|---|-O-|---|-R-|---|-O-|---|-O-|---|
|-R-|---|-O-|---|-O-|---|---|-O-|---|---|-O-|---|-R-|


|-1-|---|-9-|---|-3-|---|---|-5-|---|---|b7-|---|-1-|
|-5-|---|---|b7-|---|-1-|---|-9-|---|-3-|---|---|-5-|
|---|-3-|---|---|-5-|---|---|b7-|---|-1-|---|-9-|---|
|b7-|---|-1-|---|-9-|---|-3-|---|---|-5-|---|---|b7-|
|---|---|-5-|---|---|b7-|---|-1-|---|-9-|---|-3-|---|
|-1-|---|-9-|---|-3-|---|---|-5-|---|---|b7-|---|-1-|



    E-shape			    A-shape
 |---|---|-9-|---|		 |---|---|---|b7-|---|
 |-5-|---|---|---|		 |---|---|-3-|---|---|
 |---|-3-|---|---|		 |---|---|---|---|-9-|
 |b7-|---|---|---|		 |---|---|-5-|---|---|
 |---|---|-5-|---|		 |-1-|---|---|---|---|
 |-1-|---|---|---|		 |-5-|---|---|---|---|



     D-shape			      C-shape
 |-9-|---|---|---|		 |---|---|---|-5-|
 |---|b7-|---|---|		 |---|---|---|-9-|
 |---|---|-5-|---|		 |---|---|---|b7-|
 |-1-|---|---|---|		 |---|---|-3-|---|
 |-5-|---|---|---|		 |---|---|---|-1-|
X|---|---|-3-|---|		 |---|---|---|---|


     G-shape
|---|b7-|---|---|
|-3-|---|---|---|
|-1-|---|---|---|
|-5-|---|---|---|
|-9-|---|---|---|
|---|---|---|-1-|



Maj9 = 1,3,5,7,9
----
Moveable Major Nine Chords

|-R-|---|-O-|---|-O-|---|---|-O-|---|---|---|-O-|-R-|
|-O-|---|---|---|-O-|-R-|---|-O-|---|-O-|---|---|-O-|
|---|-O-|---|---|-O-|---|---|---|-O-|-R-|---|-O-|---|
|---|-O-|-R-|---|-O-|---|-O-|---|---|-O-|---|---|---|
|---|---|-O-|---|---|---|-O-|-R-|---|-O-|---|-O-|---|
|-R-|---|-O-|---|-O-|---|---|-O-|---|---|---|-O-|-R-|


|-1-|---|-9-|---|-3-|---|---|-5-|---|---|---|-7-|-1-|
|-5-|---|---|---|-7-|-1-|---|-9-|---|-3-|---|---|-5-|
|---|-3-|---|---|-5-|---|---|---|-7-|-1-|---|-9-|---|
|---|-7-|-1-|---|-9-|---|-3-|---|---|-5-|---|---|---|
|---|---|-5-|---|---|---|-7-|-1-|---|-9-|---|-3-|---|
|-1-|---|-9-|---|-3-|---|---|-5-|---|---|---|-7-|-1-|



    E-shape			    A-shape
 |-7-|---|---|---|		 |---|---|---|---|-7-|
 |---|-5-|---|---|		 |---|---|-3-|---|---|
 |-9-|---|---|---|		 |---|---|---|---|-9-|
 |---|---|-7-|---|		 |---|---|-5-|---|---|
 |-3-|---|---|---|		 |-1-|---|---|---|---|
 |---|-1-|---|---|		 |-5-|---|---|---|---|



     D-shape			      C-shape
 |-9-|---|---|---|		 |---|-5-|---|---|
 |---|---|-7-|---|		 |---|-9-|---|---|
 |---|---|-5-|---|		 |---|---|-7-|---|
 |-1-|---|---|---|		 |-3-|---|---|---|
 |-5-|---|---|---|		 |---|-1-|---|---|
X|---|---|---|---|		 |---|---|---|---|


     G-shape
|---|---|-7-|---|
|-3-|---|---|---|
|-1-|---|---|---|
|-5-|---|---|---|
|-9-|---|---|---|
|---|---|---|-1-|


m9 (min9) = 1,b3,5,b7,9
---------
Moveable Minor Nine Chords

|-R-|---|-O-|-O-|---|---|---|-O-|---|---|-O-|---|-R-|
|-O-|---|---|-O-|---|-R-|---|-O-|-O-|---|---|---|-O-|
|-O-|---|---|---|-O-|---|---|-O-|---|-R-|---|-O-|-O-|
|-O-|---|-R-|---|-O-|-O-|---|---|---|-O-|---|---|-O-|
|---|---|-O-|---|---|-O-|---|-R-|---|-O-|-O-|---|---|
|-R-|---|-O-|-O-|---|---|---|-O-|---|---|-O-|---|-R-|


|-1-|---|-9-|b3-|---|---|---|-5-|---|---|b7-|---|-1-|
|-5-|---|---|b7-|---|-1-|---|-9-|b3-|---|---|---|-5-|
|b3-|---|---|---|-5-|---|---|b7-|---|-1-|---|-9-|b3-|
|b7-|---|-1-|---|-9-|b3-|---|---|---|-5-|---|---|b7-|
|---|---|-5-|---|---|b7-|---|-1-|---|-9-|b3-|---|---|
|-1-|---|-9-|b3-|---|---|---|-5-|---|---|b7-|---|-1-|


    E-shape			    A-shape
 |---|---|-9-|---|		 |---|---|---|b7-|---|
 |-5-|---|---|---|		 |---|b3-|---|---|---|
 |b3-|---|---|---|		 |---|---|---|---|-9-|
 |b7-|---|---|---|		 |---|---|-5-|---|---|
 |---|---|-5-|---|		 |-1-|---|---|---|---|
 |-1-|---|---|---|		 |-5-|---|---|---|---|



     D-shape			      C-shape
 |-9-|b3-|---|---|		 |---|---|---|-5-|
 |---|b7-|---|---|		 |---|---|---|-9-|
 |---|---|-5-|---|		 |---|---|---|b7-|
 |-1-|---|---|---|		 |---|b3-|---|---|
 |-5-|---|---|---|		 |---|---|---|-1-|
X|---|---|---|---|		X|---|---|---|---|


     G-shape
|---|---|---|---|
|---|---|---|-5-|
|---|---|-9-|---|
|---|---|---|b7-|
|---|b3-|---|---|
|---|---|---|-1-|



Back to:
The Chord Book Index
The chord index
The beginners page
The intermediate page
The advenced page
The guitar homepage


Last updated January 4, 2008
Copyright 2007,2008 all rights reserved.