CHORD BOOK, pg.21

PAGE TWENTY-ONE
===============
Moveable sus4, sus2, 7sus4, 7sus2 Chords


SUS2
----

|-R-|---|-O-|---|---|---|---|-O-|---|---|---|---|-R-|
|-O-|---|---|---|---|-R-|---|-O-|---|---|---|---|-O-|
|---|---|---|---|-O-|---|---|---|---|-R-|---|-O-|---|
|---|---|-R-|---|-O-|---|---|---|---|-O-|---|---|---|
|---|---|-O-|---|---|---|---|-R-|---|-O-|---|---|---|
|-R-|---|-O-|---|---|---|---|-O-|---|---|---|---|-R-|


|-1-|---|-2-|---|---|---|---|-5-|---|---|---|---|-1-|
|-5-|---|---|---|---|-1-|---|-2-|---|---|---|---|-5-|
|---|---|---|---|-5-|---|---|---|---|-1-|---|-2-|---|
|---|---|-1-|---|-2-|---|---|---|---|-5-|---|---|---|
|---|---|-5-|---|---|---|---|-1-|---|-2-|---|---|---|
|-1-|---|-2-|---|---|---|---|-5-|---|---|---|---|-1-|



     A-shape			      C-shape
 |-5-|---|---|			X|---|---|---|---|
 |-2-|---|---|			 |---|-1-|---|---|
 |---|---|-1-|			 |-5-|---|---|---|
 |---|---|-5-|			 |-2-|---|---|---|
 |-1-|---|---|			 |---|---|---|-1-|
 |-5-|---|---|			X|---|---|---|---|


      D-shape			      G-shape
 |-2-|---|---|---|		 |---|---|---|-1-|
 |---|---|---|-1-|		 |---|---|---|-5-|
 |---|---|-5-|---|		 |-1-|---|---|---|
 |-1-|---|---|---|		 |-5-|---|---|---|
 |-5-|---|---|---|		 |-2-|---|---|---|
X|---|---|---|---|		 |---|---|---|-1-|


     E-shape	
 |---|-1-|---|	
 |---|-5-|---|	
 |-2-|---|---|	
X|---|---|---|	
X|---|---|---|	
 |---|-1-|---|



SUS4
----

|-R-|---|---|---|---|-O-|---|-O-|---|---|---|---|-R-|
|-O-|---|---|---|---|-R-|---|---|---|---|-O-|---|-O-|
|---|---|-O-|---|-O-|---|---|---|---|-R-|---|---|---|
|---|---|-R-|---|---|---|---|-O-|---|-O-|---|---|---|
|-O-|---|-O-|---|---|---|---|-R-|---|---|---|---|-O-|
|-R-|---|---|---|---|-O-|---|-O-|---|---|---|---|-R-|


|-1-|---|---|---|---|-4-|---|-5-|---|---|---|---|-1-|
|-5-|---|---|---|---|-1-|---|---|---|---|-4-|---|-5-|
|---|---|-4-|---|-5-|---|---|---|---|-1-|---|---|---|
|---|---|-1-|---|---|---|---|-4-|---|-5-|---|---|---|
|-4-|---|-5-|---|---|---|---|-1-|---|---|---|---|-4-|
|-1-|---|---|---|---|-4-|---|-5-|---|---|---|---|-1-|



 E-shape		       	      A-shape
 |-1-|---|---|			 |-5-|---|---|---|
 |-5-|---|---|			 |---|---|---|-4-|
 |---|---|-4-|			 |---|---|-1-|---|
 |---|---|-1-|			 |---|---|-5-|---|
 |---|---|-5-|			 |-1-|---|---|---|
 |-1-|---|---|			 |-5-|---|---|---|



       D-shape			      G-shape
 |---|---|---|-4-|		 |---|---|---|-1-|
 |---|---|---|-1-|		 |---|-4-|---|---|
 |---|---|-5-|---|		 |-1-|---|---|---|
 |-1-|---|---|---|		 |-5-|---|---|---|
X|---|---|---|---|		X|---|---|---|---|
X|---|---|---|---|		X|---|---|---|---|



     C-shape
 |-4-|---|---|	
 |-1-|---|---|	
X|---|---|---|	
 |---|---|-4-|	
 |---|---|-1-|	
 |---|---|-5-|	




7SUS2
-----

|-R-|---|-O-|---|---|---|---|-O-|---|---|-O-|---|-R-|
|-O-|---|---|-O-|---|-R-|---|-O-|---|---|---|---|-O-|
|---|---|---|---|-O-|---|---|-O-|---|-R-|---|-O-|---|
|-O-|---|-R-|---|-O-|---|---|---|---|-O-|---|---|-O-|
|---|---|-O-|---|---|-O-|---|-R-|---|-O-|---|---|---|
|-R-|---|-O-|---|---|---|---|-O-|---|---|-O-|---|-R-|


|-1-|---|-2-|---|---|---|---|-5-|---|---|b7-|---|-1-|
|-5-|---|---|b7-|---|-1-|---|-2-|---|---|---|---|-5-|
|---|---|---|---|-5-|---|---|b7-|---|-1-|---|-2-|---|
|b7-|---|-1-|---|-2-|---|---|---|---|-5-|---|---|b7-|
|---|---|-5-|---|---|b7-|---|-1-|---|-2-|---|---|---|
|-1-|---|-2-|---|---|---|---|-5-|---|---|b7-|---|-1-|


 E-shape		     	     A-shape
X|---|---|---|			 |-5-|---|---|
 |---|-5-|---|			 |-2-|---|---|
 |-2-|---|---|			 |b7-|---|---|
 |---|b7-|---|			 |---|---|-5-|
X|---|---|---|			 |-1-|---|---|
 |---|-1-|---|			 |-5-|---|---|


      D-shape			      G-shape
 |-2-|---|---|---|		 |---|b7-|---|---|
 |---|b7-|---|---|		 |---|---|---|-5-|
 |---|---|-5-|---|		 |---|---|-2-|---|
 |-1-|---|---|---|		 |---|---|---|---|
X|---|---|---|---|		X|---|---|---|---|
X|---|---|---|---|		 |---|---|---|-1-|


      C-shape
 |---|-5-|---|---|---|
 |---|-2-|---|---|---|
 |---|b7-|---|---|---|
X|---|---|---|---|---|
 |---|-1-|---|---|---|
X|---|---|---|---|---|




7SUS4
-----

|-R-|---|---|---|---|-O-|---|-O-|---|---|-O-|---|-R-|
|-O-|---|---|-O-|---|-R-|---|---|---|---|-O-|---|-O-|
|---|---|-O-|---|-O-|---|---|-O-|---|-R-|---|---|---|
|-O-|---|-R-|---|---|---|---|-O-|---|-O-|---|---|-O-|
|-O-|---|-O-|---|---|-O-|---|-R-|---|---|---|---|-O-|
|-R-|---|---|---|---|-O-|---|-O-|---|---|-O-|---|-R-|


|-1-|---|---|---|---|-4-|---|-5-|---|---|b7-|---|-1-|
|-5-|---|---|b7-|---|-1-|---|---|---|---|-4-|---|-5-|
|---|---|-4-|---|-5-|---|---|b7-|---|-1-|---|---|---|
|b7-|---|-1-|---|---|---|---|-4-|---|-5-|---|---|b7-|
|-4-|---|-5-|---|---|b7-|---|-1-|---|---|---|---|-4-|
|-1-|---|---|---|---|-4-|---|-5-|---|---|b7-|---|-1-|


     A-shape			     E-shape
 |-5-|---|---|---|		 |-1-|---|---|
 |---|---|---|-4-|		 |-5-|---|---|
 |b7-|---|---|---|		 |---|---|-4-|
 |---|---|-1-|---|		 |b7-|---|---|
 |-1-|---|---|---|		 |---|---|-5-|
X|---|---|---|---|		 |-1-|---|---|


      D-shape			      G-shape
 |---|---|---|-4-|		 |---|b7-|---|---|
 |---|b7-|---|---|		 |---|-4-|---|---|
 |---|---|-5-|---|		 |-1-|---|---|---|
 |-1-|---|---|---|		 |-5-|---|---|---|
X|---|---|---|---|		X|---|---|---|---|
X|---|---|---|---|		X|---|---|---|---|



     C-shape	
 |-4-|---|---|	
 |-1-|---|---|	
 |---|---|b7-|	
 |---|---|-4-|	
 |---|---|-1-|	
X|---|---|---|	


Back to:
The Chord Book Index
The chord index
The beginners page
The intermediate page
The advenced page
The guitar homepage


Last updated January 4, 2008
Copyright 2007,2008 all rights reserved.