CHORD BOOK, pg.20

PAGE TWENTY
===========
Moveable m7b5 and dim7 Chords

m7b5 chords
-----------

|-R-|---|---|-O-|---|---|-O-|---|---|---|-O-|---|-R-|
|---|---|---|-O-|---|-R-|---|---|-O-|---|---|-O-|---|
|-O-|---|---|-O-|---|---|---|-O-|---|-R-|---|---|-O-|
|-O-|---|-R-|---|---|-O-|---|---|-O-|---|---|---|-O-|
|---|-O-|---|---|---|-O-|---|-R-|---|---|-O-|---|---|
|-R-|---|---|-O-|---|---|-O-|---|---|---|-O-|---|-R-|


|-1-|---|---|b3-|---|---|b5-|---|---|---|b7-|---|-1-|
|---|---|---|b7-|---|-1-|---|---|b3-|---|---|b5-|---|
|b3-|---|---|b5-|---|---|---|b7-|---|-1-|---|---|b3-|
|b7-|---|-1-|---|---|b3-|---|---|b5-|---|---|---|b7-|
|---|b5-|---|---|---|b7-|---|-1-|---|---|b3-|---|---|
|-1-|---|---|b3-|---|---|b5-|---|---|---|b7-|---|-1-|


     A-shape			 E-shape (G-shape)
X|---|---|---|			X|---|---|---|
 |---|b3-|---|			 |---|b5-|---|
 |b7-|---|---|			 |---|---|b3-|
 |---|b5-|---|			 |---|---|b7-|
 |-1-|---|---|			X|---|---|---|
X|---|---|---|			 |---|---|-1-|
   

     D-shape			  G-shape
 |---|---|b3-|			 |---|---|b7-|---|
 |---|---|b7-|			 |b3-|---|---|---|
 |---|---|b5-|			 |---|-1-|---|---|
 |---|-1-|---|			 |b5-|---|---|---|
X|---|---|---|			X|---|---|---|---|
X|---|---|---|			X|---|---|---|---|




dim7 chords
-----------

|-R-|---|---|-O-|---|---|-O-|---|---|-O-|---|---|-R-|
|---|---|-O-|---|---|-R-|---|---|-O-|---|---|-O-|---|
|-O-|---|---|-O-|---|---|-O-|---|---|-R-|---|---|-O-|
|---|---|-R-|---|---|-O-|---|---|-O-|---|---|-O-|---|
|---|-O-|---|---|-O-|---|---|-R-|---|---|-O-|---|---|
|-R-|---|---|-O-|---|---|-O-|---|---|-O-|---|---|-R-|


|-1-|---|---|b3-|---|---|b5-|---|---|bb7|---|---|-1-|
|---|---|bb7|---|---|-1-|---|---|b3-|---|---|b5-|---|
|b3-|---|---|b5-|---|---|bb7|---|---|-1-|---|---|b3-|
|---|---|-1-|---|---|b3-|---|---|b5-|---|---|bb7|---|
|---|b5-|---|---|bb7|---|---|-1-|---|---|b3-|---|---|
|-1-|---|---|b3-|---|---|b5-|---|---|bb7|---|---|-1-|


      A-shape			 G-shape (E-shape)
X|---|---|---|---|		X|---|---|---|
 |---|---|b3-|---|		 |---|b5-|---|
 |bb7|---|---|---|		 |---|---|b3-|
 |---|---|b5-|---|		 |---|bb7|---|
 |---|-1-|---|---|		X|---|---|---|
X|---|---|---|---|		 |---|---|-1-|


     D-shape			     C-shape
 |---|b3-|---|			 |---|b5-|---|
 |bb7|---|---|			X|---|---|---|
 |---|b5-|---|			 |---|bb7|---|
 |-1-|---|---|			 |b3-|---|---|
X|---|---|---|			 |---|---|-1-|
X|---|---|---|			X|---|---|---|


Back to:
The Chord Book Index
The chord index
The beginners page
The intermediate page
The advenced page
The guitar homepage


Last updated January 4, 2008
Copyright 2007,2008 all rights reserved.