CHORD BOOK, pg.16

PAGE SIXTEEN
=============
Moveable Augmented and Diminished Chords



Dimisnished chords
------------------

|-R-|---|---|-O-|---|---|-O-|---|---|---|---|---|-R-|
|---|---|---|---|---|-R-|---|---|-O-|---|---|-O-|---|
|-O-|---|---|-O-|---|---|---|---|---|-R-|---|---|-O-|
|---|---|-R-|---|---|-O-|---|---|-O-|---|---|---|---|
|---|-O-|---|---|---|---|---|-R-|---|---|-O-|---|---|
|-R-|---|---|-O-|---|---|-O-|---|---|---|---|---|-R-|


|-1-|---|---|b3-|---|---|b5-|---|---|---|---|---|-1-|
|---|---|---|---|---|-1-|---|---|b3-|---|---|b5-|---|
|b3-|---|---|b5-|---|---|---|---|---|-1-|---|---|b3-|
|---|---|-1-|---|---|b3-|---|---|b5-|---|---|---|---|
|---|b5-|---|---|---|---|---|-1-|---|---|b3-|---|---|
|-1-|---|---|b3-|---|---|b5-|---|---|---|---|---|-1-|



    E-shape			     A-shape
 |-1-|---|---|			X|---|---|---|
X|---|---|---|			 |---|b3-|---|
 |b3-|---|---|			 |---|---|-1-|
 |---|---|-1-|			 |---|b5-|---|
 |---|b5-|---|			 |-1-|---|---|
 |-1-|---|---|			X|---|---|---|


      D-shape			      G-shape
 |---|b3-|---|---|		X|---|---|---|---|
 |---|---|---|-1-|		 |b3-|---|---|---|
 |---|b5-|---|---|		 |---|-1-|---|---|
 |-1-|---|---|---|		 |b5-|---|---|---|
X|---|---|---|---|		X|---|---|---|---|
X|---|---|---|---|		X|---|---|---|---|


    C-shape	
X|---|---|---|	
X|---|---|---|	
X|---|---|---|	
 |b3-|---|---|	
 |---|---|-1-|	
 |---|b5-|---|



Augmented Chords
----------------

|-R-|---|---|---|-O-|---|---|---|-O-|---|---|---|-R-|
|---|-O-|---|---|---|-R-|---|---|---|-O-|---|---|---|
|---|-O-|---|---|---|-O-|---|---|---|-R-|---|---|---|
|---|---|-R-|---|---|---|-O-|---|---|---|-O-|---|---|
|---|---|---|-O-|---|---|---|-R-|---|---|---|-O-|---|
|-R-|---|---|---|-O-|---|---|---|-O-|---|---|---|-R-|


|-1-|---|---|---|-3-|---|---|---|#5-|---|---|---|-1-|
|---|#5-|---|---|---|-1-|---|---|---|-3-|---|---|---|
|---|-3-|---|---|---|#5-|---|---|---|-1-|---|---|---|
|---|---|-1-|---|---|---|-3-|---|---|---|#5-|---|---|
|---|---|---|#5-|---|---|---|-1-|---|---|---|-3-|---|
|-1-|---|---|---|-3-|---|---|---|#5-|---|---|---|-1-|


    C-shape			       G-shape
X|---|---|---|			X|---|---|---|---|
 |-1-|---|---|			X|---|---|---|---|
 |#5-|---|---|			 |-1-|---|---|---|
 |---|-3-|---|			 |---|#5-|---|---|
 |---|---|-1-|			 |---|---|-3-|---|
X|---|---|---|			 |---|---|---|-1-|


     A-shape			     E-shape
 |---|#5-|---|			 |-1-|---|---|
 |---|---|-3-|			 |---|#5-|---|
 |---|---|-1-|			 |---|-3-|---|
X|---|---|---|			 |---|---|-1-|
 |-1-|---|---|			X|---|---|---|
X|---|---|---|			X|---|---|---|


       Eb+	
 |---|---|-3-|---|	
 |---|---|---|-1-|	
 |---|---|---|#5-|	
 |-1-|---|---|---|	
X|---|---|---|---|	
X|---|---|---|---|

Back to:
The Chord Book Index
The chord index
The beginners page
The intermediate page
The advenced page
The guitar homepage


Last updated January 4, 2008
Copyright 2007,2008 all rights reserved.