Arpeggios, pt.2

This is part two of a discussion of arpeggios. The previous lesson can be found at http://simianmoon.com/snglstringtheory/scales/arpeggio.html

Previously we looked at 2 string and 3 string arpeggios (within one octave) of the following triads/chords:
major = 1,3,5
minor = 1,b3,5
diminished = 1,b3,b5
augmented = 1,3,#5
sus2 = 1,2,5
sus4 = 1,4,5

This lesson will look at similar patterns for inversion of the same chords, plus single string and full fretboard patterns.

Recall, that inversions are specific forms of voicings. It's traditional to teach inversions as follows:
Example (for major chord)
root position = 1,3,5
1rst inversion = 3,5,1 (or 3,5,8)
2nd inversion = 5,1,3 (or 5,8,10)

More on inversions at
http://members.aol.com/snglstringtheory/chords/voicings2.html and
http://members.aol.com/snglstringtheory/archive/aug30.html

THE MAJOR CHORD

Arpeggios for root position are given in part 1.

1rst inversion

For 2 strings seperated by a perfect 4th, P4 (that would be E to A, A to D, D to G, or B to E).

|---|---|---|-1-|
|-3-|---|---|-5-|

For two strings seperated by a major 3rd, M3 (such as G to B).

|---|---|---|---|-1-|
|-3-|---|---|-5-|---|

For strings 6,5,4 and 5,4,3.

|-1-|---|---|
|-5-|---|---|
|---|---|-3-|

For strings 4,3,2

|---|-1-|---|
|-5-|---|---|
|---|---|-3-|

For strings 3,2,1

|-1-|---|
|-5-|---|
|---|-3-|

In the key of F
(showing the two string patterns)

 |-|-|-|-|-|-|-|-|-|-|-|-|1|
 |-|-|-|-|-|1|-|-|-|3|-|-|5|
 |-|3|-|-|5|-|-|-|-|1|-|-|-|
 |-|-|1|-|-|-|3|-|-|5|-|-|-|
3|-|-|5|-|-|-|-|1|-|-|-|-|-|
 |-|-|-|-|3|-|-|5|-|-|-|-|-|

(showing 3 string patterns)

|1|-|-|-|-|-|-|-|-|-|-|-|-|-|
|5|-|-|-|-|1|-|-|-|-|-|-|-|-|
|-|3|-|-|5|-|-|-|-|1|-|-|-|-|
|-|-|1|-|-|-|3|-|-|5|-|-|-|-|
|-|-|5|-|-|-|-|-|-|-|-|3|-|-|
|-|-|-|-|3|-|-|-|-|-|-|-|-|-|

And in TAB:
1.)

|-------|-------|-------|---------|-------13-|
|-------|-------|-----6-|---------|-10-13----|
|-------|-------|-2-5---|------10-|----------|
|-------|-----3-|-------|-7-10----|----------|
|-----8-|-0-3---|-------|---------|----------|
|-5-8---|-------|-------|---------|----------|

2.)

|-------|-----1-|-------|----------|
|-------|---1---|-----6-|----------|
|-------|-2-----|---5---|-------10-|
|-----3-|-------|-7-----|----10----|
|---3---|-------|-------|-12-------|
|-5-----|-------|-------|----------|

2nd inversion

For 2 strings seperated by a perfect 4th, P4 (that would be E to A, A to D, D to G, or B to E).

|-1-|---|---|---|-3-|
|-5-|---|---|---|---|

For two strings seperated by a major 3rd, M3 (such as G to B).

|---|-1-|---|---|---|-3-|
|-5-|---|---|---|---|---|

For strings 6,5,4 and 5,4,3.

|-3-|---|
|---|-1-|
|---|-5-|

For strings 4,3,2

|-3-|
|-1-|
|-5-|

For strings 3,2,1

|-3-|---|
|---|-1-|
|-5-|---|

In the key of F
(showing the two string patterns)

|-|-|-|-|-|-|-|-|-|-|-|-|1|-|-|-|3|
|-|-|-|-|-|1|-|-|-|3|-|-|5|-|-|-|-|
|-|-|-|-|5|-|-|-|-|1|-|-|-|3|-|-|-|
|-|-|1|-|-|-|3|-|-|5|-|-|-|-|-|-|-|
|-|-|5|-|-|-|-|1|-|-|-|3|-|-|-|-|-|
|-|-|-|-|-|-|-|5|-|-|-|-|-|-|-|-|-|

(showing 3 string patterns)

|-|-|-|-|3|-|-|-|-|-|
|-|-|-|-|-|1|-|-|-|3|
|-|3|-|-|5|-|-|-|-|1|
|-|-|1|-|-|-|3|-|-|5|
|-|-|5|-|-|-|-|1|-|-|
|-|-|-|-|-|-|-|5|-|-|

And in TAB:

3.)

|--------|-------|--------|----------|----13-17-|
|--------|-------|---6-10-|----------|-13-------|
|--------|-------|-5------|----10-14-|----------|
|--------|---3-7-|--------|-10-------|----------|
|---8-12-|-3-----|--------|----------|----------|
|-8------|-------|--------|----------|----------|

4.)

|-------|-----5-|-------|-------|
|-------|---6---|-------|-----9-|
|-----2-|-5-----|-------|---9---|
|---3---|-------|-----7-|-9-----|
|-3-----|-------|---8---|-------|
|-------|-------|-8-----|-------|

We can look at larger (6 string) arpeggios as being composed of smaller arpeggios we've studied.

Consider the major chord

"E-shape"

|---|-1-|---|---|---|-3-|
|---|-5-|---|---|---|---|
|---|---|-3-|---|---|---|
|---|---|---|-1-|---|---|
|-3-|---|---|-5-|---|---|
|---|-1-|---|---|---|---|

We can carve this shape into 2 or 3 string arpeggios, root position, 1rst and 2nd inversions. Try practicing forward and backward.

(in F)

|-------------1-5-1-------------|
|-----------1-------1-----------|
|---------2-----------2---------|
|-------3---------------3-------|
|---0-3-------------------3-0---|
|-1---------------------------1-|

"D-shape"

|---|---|---|-3-|---|---|-5-|
|---|---|---|---|-1-|---|---|
|-3-|---|---|-5-|---|---|---|
|---|-1-|---|---|---|---|---|
|---|-5-|---|---|---|---|---|
|---|---|---|-3-|---|---|---|

(in F)

|-----------------5-8-5---------|
|---------------6-------6-------|
|-----------2-5-----------5-----|
|-3-------3-----------------2---|
|---3---3---------------------3-|
|-----5-------------------------|

"C-shape"

|-3-|---|---|-5-|
|---|-1-|---|---|
|-5-|---|---|---|
|---|---|-3-|---|
|---|---|---|-1-|
|-3-|---|---|-5-|

(in F)

|-----------------5-8-5---|
|---------------6-------6-|
|-------------5-----------|
|-----------7-------------|
|-8-------8---------------|
|---8-5-8-----------------|

"A-shape"

|---|-5-|---|---|
|---|---|---|-3-|
|---|---|---|-1-|
|-3-|---|---|-5-|
|---|-1-|---|---|
|---|-5-|---|---|

(in F)

|------------------8----------------|
|---------------10---10-------------|
|------------10---------10----------|
|-------7-10---------------10----10-|
|-8---8-----------------------10----|
|---8-------------------------------|

"G-shape"

|---|---|---|-1-|
|-3-|---|---|-5-|
|-1-|---|---|---|
|-5-|---|---|---|
|---|---|-3-|---|
|---|---|---|-1-|

(in F)

|-------------------13-------------------|
|-------------10-13----13-10-------------|
|----------10----------------10----------|
|-------10----------------------10-------|
|----12----------------------------12----|
|-13----------------------------------13-|

Of course it's possible to play notes in other orders, to combine them with scales, and play with more angularity, etc., but i'm leaving these things for another time. For now, this lesson is concerned with playing the shapes up and down to create finger memory and increase ear training (sing every note you play). Later lessons covering the above issues will assume the player has this information/familiarity.

And given the full fretboard, you could come up with your own shapes.

|-|1|-|-|-|3|-|-|5|-|-|-|-|1|-|-|
|-|5|-|-|-|-|1|-|-|-|3|-|-|5|-|-|
|-|-|3|-|-|5|-|-|-|-|1|-|-|-|3|-|
|-|-|-|1|-|-|-|3|-|-|5|-|-|-|-|1|
|3|-|-|5|-|-|-|-|1|-|-|-|3|-|-|5|
|-|1|-|-|-|3|-|-|5|-|-|-|-|1|-|-|

ex.
|---------------5-8-5---------------| |-------------6-------6-------------| |-----------5-----------5-----------| |-------3-7---------------7-3-------| |---0-3-----------------------3-0---| |-1-------------------------------1-|

And you could play arpeggios along a single-string (often heard in tapping). The nice thing about learning arpeggios on a single string is that the knowledge carries over onto any string in any tuning on any similarly fretted instrument (and more or less to non-fretted stringed instruments as well).

|1|-|-|-|3|-|-|5|-|-|-|-|1|

Looking at a single string , you might consider how the inversions map out. This gives some context for notes at various parts of a string and the possibilities that exist even with string length limitations.

"root" position

|1|-|-|-|3|-|-|5|-|-|-|-|1|

|---------|
|-13-6-10-|
|---------|
|---------|
|---------|
|---------|

1rst inversion

|3|-|-|5|-|-|-|-|1|-|-|-|3|

|--------|
|--------|
|-10-2-5-|
|--------|
|--------|
|--------|

2nd inversion

|5|-|-|-|-|1|-|-|-|3|-|-|5|

|--------|
|-10-1-6-|
|--------|
|--------|
|--------|
|--------|

I leave the same shapes for the following triads: minor, augmented, diminished, sus2, sus4

MINOR CHORDS

1rst inversion

For 2 strings seperated by a perfect 4th, P4 (that would be E to A, A to D, D to G, or B to E).

|---|---|---|---|-1-|
|b3-|---|---|---|-5-|

For two strings seperated by a major 3rd, M3 (such as G to B).

|---|---|---|---|---|-1-|
|b3-|---|---|---|-5-|---|

For strings 6,5,4 and 5,4,3.

|-1-|---|
|-5-|---|
|---|b3-|

For strings 4,3,2

|---|-1-|
|-5-|---|
|---|b3-|

For strings 3,2,1

|-1-|
|-5-|
|b3-|

In the key of F
(showing the two string patterns)

|--|--|--|--|--|--|--|--|--|--|--|--|-1|--|--|
|--|--|--|--|--|-1|--|--|b3|--|--|--|-5|--|--|
|b3|--|--|--|-5|--|--|--|--|-1|--|--|--|--|--|
|--|--|--|--|--|b3|--|--|--|-5|--|--|--|--|-1|
|--|--|--|--|--|--|--|-1|--|--|b3|--|--|--|-5|
|--|--|--|b3|--|--|--|-5|--|--|--|--|--|--|--|

(showing 3 string patterns)
|-1|--|--|--|--|--|--|--|--|--|--|--|--|--| |-5|--|--|--|--|-1|--|--|--|--|--|--|--|--| |b3|--|--|--|-5|--|--|--|--|-1|--|--|--|--| |--|--|-1|--|--|b3|--|--|--|-5|--|--|--|--| |--|--|-5|--|--|--|--|--|--|--|b3|--|--|--| |--|--|--|b3|--|--|--|--|--|--|--|--|--|--|

2nd inversion

For 2 strings seperated by a perfect 4th, P4 (that would be E to A, A to D, D to G, or B to E).

|-1-|---|---|b3-|
|-5-|---|---|---|

For two strings seperated by a major 3rd, M3 (such as G to B).

|---|-1-|---|---|b3-|
|-5-|---|---|---|---|

For strings 6,5,4 and 5,4,3.

|b3-|---|---|
|---|---|-1-|
|---|---|-5-|

For strings 4,3,2

|b3-|---|
|---|-1-|
|---|-5-|

For strings 3,2,1

|b3-|---|---|
|---|---|-1-|
|---|-5-|---|

In the key of F
(showing the two string patterns)

|--|--|--|--|--|--|--|--|--|--|--|--|-1|--|--|b3|--|
|--|--|--|--|--|-1|--|--|b3|--|--|--|-5|--|--|--|--|
|--|--|--|--|-5|--|--|--|--|-1|--|--|b3|--|--|--|--|
|--|--|-1|--|--|b3|--|--|--|-5|--|--|--|--|--|--|--|
|--|--|-5|--|--|--|--|-1|--|--|b3|--|--|--|--|--|--|
|--|--|--|--|--|--|--|-5|--|--|--|--|--|--|--|--|--|

(showing 3 string patterns)
|--|--|--|b3|--|--|--|--|--|--| |--|--|--|--|--|-1|--|--|b3|--| |b3|--|--|--|-5|--|--|--|--|-1| |--|--|-1|--|--|b3|--|--|--|-5| |--|--|-5|--|--|--|--|-1|--|--| |--|--|--|--|--|--|--|-5|--|--|

Looking at larger (6 string) arpeggios as being composed of smaller arpeggios we've studied.

"E-shape"

|-1-|---|---|b3-|
|-5-|---|---|---|
|b3-|---|---|---|
|---|---|-1-|---|
|---|---|-5-|---|
|-1-|---|---|b3-|

"D-shape"

|---|b3-|---|---|
|---|---|---|-1-|
|---|---|-5-|---|
|-1-|---|---|b3-|
|-5-|---|---|---|
|---|b3-|---|---|

"C-shape"

|b3-|---|---|---|---|
|---|---|-1-|---|---|
|---|-5-|---|---|---|
|---|---|b3-|---|---|
|---|---|---|---|-1-|
|---|---|---|---|-5-|

"A-shape"

|-5-|---|---|---|
|---|b3-|---|---|
|---|---|-1-|---|
|---|---|-5-|---|
|-1-|---|---|b3-|
|-5-|---|---|---|

"G-shape"

|---|---|---|-1-|
|---|---|---|-5-|
|-1-|---|---|b3-|
|-5-|---|---|---|
|---|b3-|---|---|
|---|---|---|-1-|

And given the full fretboard, you could come up with your own shapes.

|-1|--|--|b3|--|--|--|-5|--|--|--|--|-1|--|--|
|--|--|--|--|--|-1|--|--|b3|--|--|--|-5|--|--|
|b3|--|--|--|-5|--|--|--|--|-1|--|--|b3|--|--|
|--|--|-1|--|--|b3|--|--|--|-5|--|--|--|--|-1|
|--|--|-5|--|--|--|--|-1|--|--|b3|--|--|--|-5|
|-1|--|--|b3|--|--|--|-5|--|--|--|--|-1|--|--|

And you could play arpeggios along a single-string

|-1|--|--|b3|--|--|--|-5|--|--|--|--|-1|

|b3|--|--|--|-5|--|--|--|--|-1|--|--|b3|

|-5|--|--|--|--|-1|--|--|b3|--|--|--|-5|

DIMINISHED CHORDS

1rst inversion

For 2 strings seperated by a perfect 4th, P4 (that would be E to A, A to D, D to G, or B to E).

|---|---|---|---|-1-|
|b3-|---|---|b5-|---|

For two strings seperated by a major 3rd, M3 (such as G to B).

|---|---|---|---|---|-1-|
|b3-|---|---|b5-|---|---|

For strings 6,5,4 and 5,4,3.

|---|-1-|---|
|b5-|---|---|
|---|---|b3-|

For strings 4,3,2

|---|---|-1-|
|b5-|---|---|
|---|---|b3-|

For strings 3,2,1

|---|-1-|
|b5-|---|
|---|b3-|

In the key of F
(showing the two string patterns)

|--|--|--|--|--|--|--|--|--|--|--|--|-1|--|--|
|--|--|--|--|--|-1|--|--|b3|--|--|b5|--|--|--|
|b3|--|--|b5|--|--|--|--|--|-1|--|--|--|--|--|
|--|--|--|--|--|b3|--|--|b5|--|--|--|--|--|-1|
|--|--|--|--|--|--|--|-1|--|--|b3|--|--|b5|--|
|--|--|--|b3|--|--|b5|--|--|--|--|--|--|--|--|

(showing 3 string patterns)
|-1|--|--|--|--|--|--|--|--|--|--|--|--|--| b5|--|--|--|--|--|-1|--|--|--|--|--|--|--|--| |b3|--|--|b5|--|--|--|--|--|-1|--|--|--|--| |--|--|-1|--|--|b3|--|--|b5|--|--|--|--|--| |--|b5|--|--|--|--|--|--|--|--|b3|--|--|--| |--|--|--|b3|--|--|--|--|--|--|--|--|--|--|

2nd inversion

For 2 strings seperated by a perfect 4th, P4 (that would be E to A, A to D, D to G, or B to E).

|---|-1-|---|---|b3-|
|b5-|---|---|---|---|

For two strings seperated by a major 3rd, M3 (such as G to B).

|---|---|-1-|---|---|b3-|
|b5-|---|---|---|---|---|

For strings 6,5,4 and 5,4,3.

|b3-|---|---|
|---|---|-1-|
|---|b5-|---|

For strings 4,3,2

|b3-|---|
|---|-1-|
|b5-|---|

For strings 3,2,1

|b3-|---|---|
|---|---|-1-|
|b5-|---|---|

In the key of F
(showing the two string patterns)

|--|--|--|--|--|--|--|--|--|--|--|--|-1|--|--|b3|--|
|--|--|--|--|--|-1|--|--|b3|--|--|b5|--|--|--|--|--|
|--|--|--|b5|--|--|--|--|--|-1|--|--|b3|--|--|--|--|
|--|--|-1|--|--|b3|--|--|b5|--|--|--|--|--|--|--|--|
|--|b5|--|--|--|--|--|-1|--|--|b3|--|--|--|--|--|--|
|--|--|--|--|--|--|b5|--|--|--|--|--|--|--|--|--|--|

(showing 3 string patterns)
|--|--|--|b3|--|--|--|--|--|--| |--|--|--|--|--|-1|--|--|b3|--| |b3|--|--|b5|--|--|--|--|--|-1| |--|--|-1|--|--|b3|--|--|b5|--| |--|b5|--|--|--|--|--|-1|--|--| |--|--|--|--|--|--|b5|--|--|--|

Looking at larger (6 string) arpeggios as being composed of smaller arpeggios we've studied.

"E-shape"

|---|-1-|---|---|b3-|
|b5-|---|---|---|---|
|---|b3-|---|---|---|
|---|---|---|-1-|---|
|---|---|b5-|---|---|
|---|-1-|---|---|b3-|

"D-shape"

|---|---|b3-|---|---|
|---|---|---|---|-1-|
|---|---|b5-|---|---|
|---|-1-|---|---|b3-|
|b5-|---|---|---|---|
|---|---|b3-|---|---|

"C-shape"

|b3-|---|---|b5-|---|
|---|---|-1-|---|---|
|b5-|---|---|---|---|
|---|---|b3-|---|---|
|---|---|---|---|-1-|
|---|---|---|b5-|---|

"A-shape"

|b5-|---|---|---|---|
|---|---|b3-|---|---|
|---|---|---|-1-|---|
|---|---|b5-|---|---|
|---|-1-|---|---|b3-|
|b5-|---|---|---|---|

"G-shape"

|---|---|---|---|-1-|
|---|---|---|b5-|---|
|---|-1-|---|---|b3-|
|b5-|---|---|---|---|
|---|---|b3-|---|---|
|---|---|---|---|-1-|

And given the full fretboard, you could come up with your own shapes.

|-1|--|--|b3|--|--|b5|--|--|--|--|--|-1|--|--|
|--|--|--|--|--|-1|--|--|b3|--|--|b5|--|--|--|
|b3|--|--|b5|--|--|--|--|--|-1|--|--|b3|--|--|
|--|--|-1|--|--|b3|--|--|b5|--|--|--|--|--|-1|
|--|b5|--|--|--|--|--|-1|--|--|b3|--|--|b5|--|
|-1|--|--|b3|--|--|b5|--|--|--|--|--|-1|--|--|

And you could play arpeggios along a single-string

|-1|--|--|b3|--|--|b5|--|--|--|--|--|-1|

|b3|--|--|b5|--|--|--|--|--|-1|--|--|b3|

|b5|--|--|--|--|--|-1|--|--|b3|--|--|b5|

AUGMENTED CHORDS

1rst inversion

For 2 strings seperated by a perfect 4th, P4 (that would be E to A, A to D, D to G, or B to E).

|---|---|---|-1-|---|
|-3-|---|---|---|#5-|

For two strings seperated by a major 3rd, M3 (such as G to B).

|---|---|---|---|-1-|
|-3-|---|---|---|#5-|

For strings 6,5,4 and 5,4,3.

|-1-|---|---|
|---|#5-|---|
|---|---|-3-|

For strings 4,3,2

|---|-1-|---|
|---|#5-|---|
|---|---|-3-|

For strings 3,2,1

|-1-|---|
|---|#5-|
|---|-3-|

In the key of F
(showing the two string patterns)

|--|--|--|--|--|--|--|--|--|--|--|--|-1|--|--|--|
|--|--|--|--|--|-1|--|--|--|-3|--|--|--|#5|--|--|
|--|-3|--|--|--|#5|--|--|--|-1|--|--|--|--|--|--|
|--|--|--|--|--|--|-3|--|--|--|#5|--|--|--|-1|--|
|--|--|--|--|--|--|--|-1|--|--|--|-3|--|--|--|#5|
|--|--|--|--|-3|--|--|--|#5|--|--|--|--|--|--|--|

(showing 3 string patterns)
|-1|--|--|--|--|--|--|--|--|--|--|--|--|--| |--|#5|--|--|--|-1|--|--|--|--|--|--|--|--| |--|-3|--|--|--|#5|--|--|--|-1|--|--|--|--| |--|--|-1|--|--|--|-3|--|--|--|#5|--|--|--| |--|--|--|#5|--|--|--|--|--|--|--|-3|--|--| |--|--|--|--|-3|--|--|--|--|--|--|--|--|--|

2nd inversion

For 2 strings seperated by a perfect 4th, P4 (that would be E to A, A to D, D to G, or B to E).

|-1-|---|---|---|-3-|
|---|#5-|---|---|---|

For two strings seperated by a major 3rd, M3 (such as G to B).

|-1-|---|---|---|-3-|
|#5-|---|---|---|---|

For strings 6,5,4 and 5,4,3.

|-3-|---|---|
|---|-1-|---|
|---|---|#5-|

For strings 4,3,2

|-3-|---|
|-1-|---|
|---|#5-|

For strings 3,2,1

|-3-|---|
|---|-1-|
|---|#5-|

In the key of F
(showing the two string patterns)

|--|--|--|--|--|--|--|--|--|--|--|--|-1|--|--|--|-3|
|--|--|--|--|--|-1|--|--|--|-3|--|--|--|#5|--|--|--|
|--|--|--|--|--|#5|--|--|--|-1|--|--|--|-3|--|--|--|
|--|--|-1|--|--|--|-3|--|--|--|#5|--|--|--|--|--|--|
|--|--|--|#5|--|--|--|-1|--|--|--|-3|--|--|--|--|--|
|--|--|--|--|--|--|--|--|#5|--|--|--|--|--|--|--|--|

(showing 3 string patterns)
|--|--|--|--|-3|--|--|--|--|--|--| |--|--|--|--|--|-1|--|--|--|-3|--| |--|-3|--|--|--|#5|--|--|--|-1|--| |--|--|-1|--|--|--|-3|--|--|--|#5| |--|--|--|#5|--|--|--|-1|--|--|--| |--|--|--|--|--|--|--|--|#5|--|--|

Looking at larger (6 string) arpeggios as being composed of smaller arpeggios we've studied.

"E-shape"

|---|-1-|---|---|---|
|---|---|#5-|---|---|
|---|---|-3-|---|---|
|---|---|---|-1-|---|
|-3-|---|---|---|#5-|
|---|-1-|---|---|---|

"D-shape"

|---|---|---|-3-|---|
|---|---|---|---|-1-|
|-3-|---|---|---|#5-|
|---|-1-|---|---|---|
|---|---|#5-|---|---|
|---|---|---|-3-|---|

"C-shape"

|-3-|---|---|---|---|
|---|-1-|---|---|---|
|---|#5-|---|---|---|
|---|---|-3-|---|---|
|---|---|---|-1-|---|
|---|---|---|---|#5-|

"A-shape"

|---|---|#5-|---|---|
|---|---|---|-3-|---|
|---|---|---|-1-|---|
|-3-|---|---|---|#5-|
|---|-1-|---|---|---|
|---|---|#5-|---|---|

"G-shape"

|#5-|---|---|---|-1-|
|---|-3-|---|---|---|
|---|-1-|---|---|---|
|---|---|#5-|---|---|
|---|---|---|-3-|---|
|---|---|---|---|-1-|

And given the full fretboard, you could come up with your own shapes.

|-1|--|--|--|-3|--|--|--|#5|--|--|--|-1|--|--|
|--|#5|--|--|--|-1|--|--|--|-3|--|--|--|#5|--|
|--|-3|--|--|--|#5|--|--|--|-1|--|--|--|-3|--|
|--|--|-1|--|--|--|-3|--|--|--|#5|--|--|--|-1|
|--|--|--|#5|--|--|--|-1|--|--|--|-3|--|--|--|
|-1|--|--|--|-3|--|--|--|#5|--|--|--|-1|--|--|

And you could play arpeggios along a single-string

|-1|--|--|--|-3|--|--|--|#5|--|--|--|-1|

|-3|--|--|--|#5|--|--|--|-1|--|--|--|-3|

|#5|--|--|--|-1|--|--|--|-3|--|--|--|#5|

SUS2 CHORDS

1rst inversion

For 2 strings seperated by a perfect 4th, P4 (that would be E to A, A to D, D to G, or B to E).

|---|---|---|---|---|-1-|
|-2-|---|---|---|---|-5-|

For two strings seperated by a major 3rd, M3 (such as G to B).

|---|---|---|---|---|---|-1-|
|-2-|---|---|---|---|-5-|---|

For strings 6,5,4 and 5,4,3.

|-1-|
|-5-|
|-2-|

For strings 4,3,2

|---|-1-|
|-5-|---|
|-2-|---|

For strings 3,2,1

|---|-1-|---|
|---|-5-|---|
|-2-|---|---|

In the key of F
(showing the two string patterns)

 |-|-|-|-|-|-|-|-|-|-|-|-|1|-|-|
 |-|-|-|-|-|1|-|2|-|-|-|-|5|-|-|
2|-|-|-|-|5|-|-|-|-|1|-|-|-|-|-|
 |-|-|-|-|2|-|-|-|-|5|-|-|-|-|1|
 |-|-|-|-|-|-|-|1|-|2|-|-|-|-|5|
 |-|-|2|-|-|-|-|5|-|-|-|-|-|-|-|

(showing 3 string patterns)
|1|-|-|-|-|-|-|-|-|-|-|-|-|-| |5|-|-|-|-|1|-|-|-|-|-|-|-|-| 2|-|-|-|-|5|-|-|-|-|1|-|-|-|-| |-|-|1|-|2|-|-|-|-|5|-|-|-|-| |-|-|5|-|-|-|-|-|-|2|-|-|-|-| |-|-|2|-|-|-|-|-|-|-|-|-|-|-|

2nd inversion

For 2 strings seperated by a perfect 4th, P4 (that would be E to A, A to D, D to G, or B to E).

|-1-|---|-2-|
|-5-|---|---|

For two strings seperated by a major 3rd, M3 (such as G to B).

|---|-1-|---|-2-|
|-5-|---|---|---|

For strings 6,5,4 and 5,4,3.

|-2-|---|---|---|
|---|---|---|-1-|
|---|---|---|-5-|

For strings 4,3,2

|-2-|---|---|
|---|---|-1-|
|---|---|-5-|

For strings 3,2,1

|-2-|---|---|---|
|---|---|---|-1-|
|---|---|-5-|---|

In the key of F
(showing the two string patterns)

|-|-|-|-|-|-|-|-|-|-|-|-|1|-|2|-|-|
|-|-|-|-|-|1|-|2|-|-|-|-|5|-|-|-|-|
|-|-|-|-|5|-|-|-|-|1|-|2|-|-|-|-|-|
|-|-|1|-|2|-|-|-|-|5|-|-|-|-|-|-|-|
|-|-|5|-|-|-|-|1|-|2|-|-|-|-|-|-|-|
|-|-|-|-|-|-|-|5|-|-|-|-|-|-|-|-|-|

(showing 3 string patterns)
|-|-|2|-|-|-|-|-|-|-| |-|-|-|-|-|1|-|2|-|-| 2|-|-|-|-|5|-|-|-|-|1| |-|-|1|-|2|-|-|-|-|5| |-|-|5|-|-|-|-|1|-|-| |-|-|-|-|-|-|-|5|-|-|

Looking at larger (6 string) arpeggios as being composed of smaller arpeggios we've studied.

"E-shape"

|---|-1-|---|-2-|
|---|-5-|---|---|
|-2-|---|---|---|
|---|---|---|-1-|
|---|---|---|-5-|
|---|-1-|---|-2-|

"D-shape"

|-2-|---|---|---|
|---|---|---|-1-|
|---|---|-5-|---|
|-1-|---|-2-|---|
|-5-|---|---|---|
|-2-|---|---|---|

"C-shape"

|---|---|---|-5-|
|---|-1-|---|-2-|
|-5-|---|---|---|
|-2-|---|---|---|
|---|---|---|-1-|
|---|---|---|-5-|

"A-shape"

|-5-|---|---|
|-2-|---|---|
|---|---|-1-|
|---|---|-5-|
|-1-|---|-2-|
|-5-|---|---|

"G-shape"

|---|---|---|-1-|
|---|---|---|-5-|
|-1-|---|-2-|---|
|-5-|---|---|---|
|-2-|---|---|---|
|---|---|---|-1-|

And given the full fretboard, you could come up with your own shapes.

|-1|--|-2|--|--|--|--|-5|--|--|--|--|-1|--|-2|
|--|--|--|--|--|-1|--|-2|--|--|--|--|-5|--|--|
|--|--|--|--|-5|--|--|--|--|-1|--|-2|--|--|--|
|--|--|-1|--|-2|--|--|--|--|-5|--|--|--|--|-1|
|--|--|-5|--|--|--|--|-1|--|-2|--|--|--|--|-5|
|-1|--|-2|--|--|--|--|-5|--|--|--|--|-1|--|-2|

And you could play arpeggios along a single-string

|-1|--|-2|--|--|--|--|-5|--|--|--|--|-1|

|-2|--|--|--|--|-5|--|--|--|--|-1|--|-2|

|-5|--|--|--|--|-1|--|-2|--|--|--|--|-5|

SUS4 CHORDS

1rst inversion

For 2 strings seperated by a perfect 4th, P4 (that would be E to A, A to D, D to G, or B to E).

|---|---|-1-|
|-4-|---|-5-|

For two strings seperated by a major 3rd, M3 (such as G to B).

|---|---|---|-1-|
|-4-|---|-5-|---|

For strings 6,5,4 and 5,4,3.

|-1-|---|---|---|
|-5-|---|---|---|
|---|---|---|-4-|

For strings 4,3,2

|---|-1-|---|---|
|-5-|---|---|---|
|---|---|---|-4-|

For strings 3,2,1

|-1-|---|---|
|-5-|---|---|
|---|---|-4-|

In the key of F
(showing the two string patterns)

|-|-|-|-|-|-|-|-|-|-|-|-|1|
|-|-|-|-|-|1|-|-|-|-|4|-|5|
|-|-|4|-|5|-|-|-|-|1|-|-|-|
|-|-|1|-|-|-|-|4|-|5|-|-|-|
|4|-|5|-|-|-|-|1|-|-|-|-|-|
|-|-|-|-|-|4|-|5|-|-|-|-|-|

(showing 3 string patterns)
|1|-|-|-|-|-|-|-|-|-|-|-|-|-| |5|-|-|-|-|1|-|-|-|-|-|-|-|-| |-|-|4|-|5|-|-|-|-|1|-|-|-|-| |-|-|1|-|-|-|-|4|-|5|-|-|-|-| |-|-|5|-|-|-|-|-|-|-|-|-|4|-| |-|-|-|-|-|4|-|-|-|-|-|-|-|-|

2nd inversion

For 2 strings seperated by a perfect 4th, P4 (that would be E to A, A to D, D to G, or B to E).

|-1-|---|---|---|---|-4-|
|-5-|---|---|---|---|---|

For two strings seperated by a major 3rd, M3 (such as G to B).

|---|-1-|---|---|---|---|-4-|
|-5-|---|---|---|---|---|---|

For strings 6,5,4 and 5,4,3.

|-4-|
|-1-|
|-5-|

For strings 4,3,2

|---|-4-|
|-1-|---|
|-5-|---|

For strings 3,2,1

|---|-4-|
|---|-1-|
|-5-|---|

In the key of F
(showing the two string patterns)

|-|-|-|-|-|-|-|-|-|-|-|-|1|-|-|-|-|4|
|-|-|-|-|-|1|-|-|-|-|4|-|5|-|-|-|-|-|
|-|-|-|-|5|-|-|-|-|1|-|-|-|-|4|-|-|-|
|-|-|1|-|-|-|-|4|-|5|-|-|-|-|-|-|-|-|
|-|-|5|-|-|-|-|1|-|-|-|-|4|-|-|-|-|-|
|-|-|-|-|-|-|-|5|-|-|-|-|-|-|-|-|-|-|

(showing 3 string patterns)
|-|-|-|-|-|4|-|-|-|-|-| |-|-|-|-|-|1|-|-|-|-|4| |-|-|4|-|5|-|-|-|-|1|-| |-|-|1|-|-|-|-|4|-|5|-| |-|-|5|-|-|-|-|1|-|-|-| |-|-|-|-|-|-|-|5|-|-|-|

Looking at larger (6 string) arpeggios as being composed of smaller arpeggios we've studied.

"E-shape"

|-1-|---|---|
|-5-|---|---|
|---|---|-4-|
|---|---|-1-|
|-4-|---|-5-|
|-1-|---|---|

"D-shape"

|---|---|---|-4-|
|---|---|---|-1-|
|-4-|---|-5-|---|
|-1-|---|---|---|
|-5-|---|---|---|
|---|---|---|-4-|

"C-shape"

|---|-4-|---|-5-|
|---|-1-|---|---|
|-5-|---|---|---|
|---|---|---|-4-|
|---|---|---|-1-|
|---|-4-|---|-5-|

"A-shape"

|-5-|---|---|---|
|---|---|---|-4-|
|---|---|-1-|---|
|-4-|---|-5-|---|
|-1-|---|---|---|
|-5-|---|---|---|

"G-shape"

|---|---|---|-1-|
|---|-4-|---|-5-|
|-1-|---|---|---|
|-5-|---|---|---|
|---|---|---|-4-|
|---|---|---|-1-|

And given the full fretboard, you could come up with your own shapes.

|-1|--|--|--|--|-4|--|-5|--|--|--|--|-1|--|--|
|--|--|--|--|--|-1|--|--|--|--|-4|--|-5|--|--|
|--|--|-4|--|-5|--|--|--|--|-1|--|--|--|--|-4|
|--|--|-1|--|--|--|--|-4|--|-5|--|--|--|--|-1|
|-4|--|-5|--|--|--|--|-1|--|--|--|--|-4|--|-5|
|-1|--|--|--|--|-4|--|-5|--|--|--|--|-1|--|--|

And you could play arpeggios along a single-string

|-1|--|--|--|--|-4|--|-5|--|--|--|--|-1|

|-4|--|-5|--|--|--|--|-1|--|--|--|--|-4|

|-5|--|--|--|--|-1|--|--|--|--|-4|--|-5|

Future arpeggio lessons include:
pt.3 common 7th chord rake arpeggios
pt.4 integrating arpeggios and scales into solos
pt.5 common 9th chord rake arpeggios

Peace,
Chris Roberts


How do I change all those numbers to letters (for notes, chords, etc.)? Here's a transposition chart simianmoon.com/snglstringtheory/guitar/8theory3.html

Back to the Chord lesson index
Next Lesson - dominant seven chord
Previous Lesson - voicings
Home


Last updated January 1, 2003.
Copyright 2001,2003, 2008. All rights reserved